0
SECTION
2
HEADER
9
$INSUNITS
70
4
9
$ACADVER
1
AC1014
9
$HANDSEED
5
FFFF
0
ENDSEC
0
SECTION
2
TABLES
0
TABLE
2
VPORT
5
8
100
AcDbSymbolTable
0
ENDTAB
0
TABLE
2
LTYPE
5
5
100
AcDbSymbolTable
0
LTYPE
5
14
100
AcDbSymbolTableRecord
100
AcDbLinetypeTableRecord
2
BYBLOCK
70
0
0
LTYPE
5
15
100
AcDbSymbolTableRecord
100
AcDbLinetypeTableRecord
2
BYLAYER
70
0
0
ENDTAB
0
TABLE
2
LAYER
5
2
100
AcDbSymbolTable
70
2
0
LAYER
5
50
100
AcDbSymbolTableRecord
100
AcDbLayerTableRecord
2
0
70
0
6
CONTINUOUS
0
ENDTAB
0
TABLE
2
STYLE
5
3
100
AcDbSymbolTable
70
1
0
STYLE
5
11
100
AcDbSymbolTableRecord
100
AcDbTextStyleTableRecord
2
STANDARD
70
0
0
ENDTAB
0
TABLE
2
VIEW
5
6
100
AcDbSymbolTable
70
0
0
ENDTAB
0
TABLE
2
UCS
5
7
100
AcDbSymbolTable
70
0
0
ENDTAB
0
TABLE
2
APPID
5
9
100
AcDbSymbolTable
70
2
0
APPID
5
12
100
AcDbSymbolTableRecord
100
AcDbRegAppTableRecord
2
ACAD
70
0
0
ENDTAB
0
TABLE
2
DIMSTYLE
5
A
100
AcDbSymbolTable
70
1
0
ENDTAB
0
TABLE
2
BLOCK_RECORD
5
1
100
AcDbSymbolTable
70
1
0
BLOCK_RECORD
5
1F
100
AcDbSymbolTableRecord
100
AcDbBlockTableRecord
2
*MODEL_SPACE
0
BLOCK_RECORD
5
1B
100
AcDbSymbolTableRecord
100
AcDbBlockTableRecord
2
*PAPER_SPACE
0
ENDTAB
0
ENDSEC
0
SECTION
2
BLOCKS
0
BLOCK
5
20
100
AcDbEntity
100
AcDbBlockBegin
2
*MODEL_SPACE
0
ENDBLK
5
21
100
AcDbEntity
100
AcDbBlockEnd
0
BLOCK
5
1C
100
AcDbEntity
100
AcDbBlockBegin
2
*PAPER_SPACE
0
ENDBLK
5
1D
100
AcDbEntity
100
AcDbBlockEnd
0
ENDSEC
0
SECTION
2
ENTITIES
0
LWPOLYLINE
5
100
100
AcDbEntity
8
0
100
AcDbPolyline
90
406
70
1
43
0.0
10
32.229047358535382
20
21.054088891156297
10
32.284171704118378
20
20.940507090798874
10
32.34865226194259
20
20.831963198704173
10
32.422032236867082
20
20.729226164833889
10
35.288290040862087
20
17.053750211665104
10
35.489250640467191
20
16.73954701014992
10
35.628430891269488
20
16.393515693326393
10
35.700998472585169
20
16.027670424697646
10
35.704433847179885
20
15.654713305664671
10
35.664595320697586
20
15.331769685644474
10
35.570531157522097
20
14.959662336865165
10
35.546183428065987
20
14.625623826009928
10
35.565997887035877
20
14.291285784680667
10
35.629630018684594
20
13.9624613779133
10
35.735973445522689
20
13.644867904692504
10
35.795154796368877
20
13.359003543158465
10
35.746991064399687
20
13.071077996521936
10
35.597997012218968
20
12.820036888537629
10
35.368325996712699
20
12.639836749471272
10
35.089043968998581
20
12.554851959778759
10
34.797927406016385
20
12.576577802469515
10
34.534353557416878
20
12.70207557861589
10
34.333974167406765
20
12.914370104080817
10
34.134612572291175
20
13.183497384483616
10
33.901574194830282
20
13.424054349243661
10
33.6389108938627
20
13.631858413180922
10
33.351189619386673
20
13.803296468693631
10
32.992322744267071
20
13.93940859802612
10
32.704818895136668
20
14.091793724069319
10
32.401119552485881
20
14.308301284467362
10
32.142859381365895
20
14.577393273290937
10
31.939005142215269
20
14.88972685076277
10
31.796634628403986
20
15.234457834622859
10
30.426563158220183
20
19.689506818402194
10
30.384406357424876
20
19.80851237707526
10
30.332391310085089
20
19.923551299612896
10
30.270886502790777
20
20.033808623759981
10
30.200327649779677
20
20.138503261206964
10
30.121214606237494
20
20.236893530999609
10
29.226349935332276
20
21.258592725973386
42
0.61836867687752339
10
29.053259327176182
20
21.21325915007688
10
28.980967960701385
20
20.844082693488204
10
28.919341365369284
20
20.476523007167131
10
28.869893708387675
20
19.385336409309133
10
28.878489618937788
20
18.294217294910666
10
28.944714515049963
20
17.205075855693863
10
29.068383451503266
20
16.12095371975137
10
29.249151060012277
20
15.044878497846312
10
29.482937536296188
20
13.995895985825797
10
29.483923426597283
20
13.991805786802232
10
29.496334822310981
20
13.900435097201154
10
29.491696327840877
20
13.810021587648933
10
29.470940801225591
20
13.722752112782359
10
29.435001100503673
20
13.640813527238791
10
29.384810083713671
20
13.566392685655018
10
29.321300608893974
20
13.501676442668327
10
29.245405534083257
20
13.448851652915863
10
29.158057717319981
20
13.41010517103463
42
-0.029442209601474797
10
29.101773889818592
20
13.394923997194894
42
-0.029442209601226781
10
29.044096474257781
20
13.38645918700216
10
28.948543886645091
20
13.387255398026383
10
28.85789748765438
20
13.405524255214303
10
28.773883175956971
20
13.439630573224193
10
28.698226850224184
20
13.487939166714966
10
28.632654409127181
20
13.54881485034511
10
28.578891751336979
20
13.620622438773538
10
28.538664775525184
20
13.701726746658736
10
28.514869999469479
20
13.786330387741046
10
28.323494939120675
20
14.986845560351369
10
28.239084546932975
20
16.205649703929694
10
28.263258506664179
20
17.427134159165831
10
28.395825744635967
20
18.641644176468972
10
28.63573843458969
20
19.839580132984125
10
28.981100279822453
20
21.0114734090849
42
0.76000637891204847
10
28.822289057349177
20
21.120613651869107
10
28.538274447293102
20
20.873037323451626
10
28.268523363142783
20
20.618719349730625
10
28.012910388542078
20
20.357995368670956
10
27.771310107134966
20
20.091201018237328
10
27.543597102564981
20
19.818671936394878
10
27.329645958476174
20
19.540743761107606
10
27.129331258511886
20
19.257752130341217
10
26.942527586316274
20
18.970032682059781
10
26.769109525532766
20
18.677921054228364
10
26.608951659805484
20
18.381752884811888
10
26.461928572777964
20
18.081863811774852
10
26.32791484809399
20
17.778589473082107
10
26.206785069397274
20
17.472265506698719
10
26.098413820331867
20
17.163227550589184
10
26.002675684541092
20
16.851811242718426
10
25.919445245669177
20
16.538352221051085
10
25.848597087359586
20
16.223186123552082
10
25.790005793256192
20
15.906648588186059
10
25.743545947002673
20
15.589075252917937
10
25.709092132242883
20
15.270801755712569
10
25.686518932620679
20
14.952163734534665
10
25.675700931779684
20
14.633496827348935
10
25.676512713363469
20
14.315136672120232
10
25.688828861016262
20
13.997418906813266
10
25.712523958381492
20
13.680679169392889
10
25.747472589103086
20
13.365253097824095
10
25.793549336824579
20
13.051476330071239
10
25.850628785190093
20
12.739684504099458
10
25.91858551784318
20
12.43021325787339
10
25.997294118427572
20
12.123398229357676
10
26.086629170587177
20
11.819575056517451
10
26.186465257965583
20
11.519079377317141
10
26.296676964206664
20
11.22224682972174
10
26.417138872954276
20
10.929413051696244
10
26.54772556785197
20
10.640913681205078
10
26.688311632543673
20
10.357084356213022
10
26.838771650673081
20
10.07826071468493
10
26.998980205883978
20
9.8047783945858669
10
27.168811881820272
20
9.5369730338803294
10
27.348141262125374
20
9.2751802705331698
10
27.536842930443264
20
9.0197357425090985
10
27.734791470417886
20
8.7709750877730386
10
27.941861465692774
20
8.5292339442896292
10
28.157927499911679
20
8.2948479500239358
10
28.38286415671849
20
8.0681527429404554
10
28.616546019756992
20
7.8494839610041112
10
28.858847672670684
20
7.6391772421795423
10
29.109643699103671
20
7.4375682244317431
10
29.36880868269947
20
7.2449925457252817
10
29.636217207102078
20
7.0617858440250814
10
29.911743855955191
20
6.8882837572960653
10
30.195263212902397
20
6.7248219235028017
10
30.486649861587587
20
6.5717359806099296
10
30.785778385654581
20
6.4293615665826565
10
31.092523368746878
20
6.2980343193856214
10
31.40675939450869
20
6.1780898769833925
10
31.728361046583586
20
6.0698638773408931
10
32.057202908615196
20
5.9736919584229042
10
32.393159564247291
20
5.8899097581944204
10
32.736105597123881
20
5.8188529146199386
10
33.085915590888476
20
5.760857065664311
10
33.442464129184977
20
5.7162578492923899
10
33.805625795657086
20
5.6853909034689565
10
34.175275173948677
20
5.6685918661586499
10
35.51837235643417
20
5.674101633051265
10
36.842351053510697
20
5.8999794956660878
10
38.111301476365981
20
6.3400990515449251
10
39.290806347895483
20
6.9825230993279064
10
40.348874389891293
20
7.8098274070883633
10
41.256808010752586
20
8.7995733033876178
10
41.312201510072256
20
8.922795626943909
10
41.375721510650777
20
9.0435440249714816
10
41.446945877084985
20
9.1614619185262569
10
41.525452473972081
20
9.2761927286637302
10
41.715707081597756
20
9.5493351675652605
10
41.894626306636681
20
9.8292885934436214
10
42.061651818116097
20
10.116106958121165
10
42.216225285062983
20
10.409844213419603
10
42.314394473152177
20
10.50785862244318
10
42.417516689510094
20
10.599843653948398
10
42.525301034107969
20
10.685659051913561
10
42.637456606917183
20
10.76516456031662
10
42.753692507909179
20
10.838219923135739
10
42.873717837054869
20
10.904684884349081
10
42.997241694325865
20
10.964419187934951
10
43.123973179693387
20
11.01728257787137
10
43.253621393128654
20
11.063134798136574
10
43.38589543460305
20
11.101835592708653
10
43.520504404087745
20
11.133244705565772
10
43.657157401554265
20
11.157221880686166
10
43.795563526973673
20
11.173626862048138
10
43.935431880317367
20
11.182319393629356
10
44.076471561556652
20
11.183159219408481
10
44.218391670662669
20
11.176006083363532
10
56.053836651055562
20
10.244536362377588
10
56.209923470813763
20
10.227340149191022
10
56.363564122212878
20
10.200651091645412
10
56.514389710112184
20
10.164705921617596
10
56.662031339371438
20
10.119741370984769
10
56.806120114850458
20
10.065994171623913
10
56.946287141408582
20
10.003701055412151
10
57.082163523905542
20
9.9330987542266769
10
57.213380367200969
20
9.8544239999444017
10
57.339568776154373
20
9.7679135244423065
10
57.460359855625583
20
9.673804059597586
10
57.575384710473955
20
9.5723323372873637
10
57.68427444555936
20
9.4637350893885497
10
57.786660165741246
20
9.3482490477783386
10
57.882172975879236
20
9.226110944333783
10
57.970443980832975
20
9.0975575109319351
10
58.051104285462159
20
8.9628254794496343
10
58.201563147354669
20
8.7051788242099093
10
58.359598737660257
20
8.4584072112554765
10
58.524904680898437
20
8.2224437816413598
10
58.697174601588941
20
7.997221676423294
10
58.876102124250984
20
7.7826740366561609
10
59.06138087340436
20
7.5787340033952688
10
59.252704473568478
20
7.3853347176959261
10
59.449766549262755
20
7.2024093206133699
10
59.652260725007089
20
7.0298909532028375
10
59.859880625320571
20
6.8677127565195661
10
60.072319874723078
20
6.7158078716188641
10
60.289272097733964
20
6.5741094395558974
10
60.510430918872871
20
6.4425506013859035
10
60.735489962659258
20
6.3210644981641195
10
60.964142853612593
20
6.2095842709459959
10
61.196083216252575
20
6.1080430607864145
10
61.431004675098663
20
6.0163740087410389
10
61.668600854670373
20
5.9345102558648932
10
61.908565379487172
20
5.8623849432130726
10
62.150591874068667
20
5.7999312118410984
10
62.394373962934466
20
5.7470822028040658
10
62.639605270603944
20
5.7037710571574252
10
62.885979421596758
20
5.6699309159561295
10
63.133190040432439
20
5.6454949202556293
10
63.380930751630459
20
5.6303962111110906
10
63.628895179710447
20
5.6245679295776796
10
63.876776949191751
20
5.6279432167108467
10
64.124269684594154
20
5.6404552135657582
10
64.37106701043686
20
5.6620370611975801
10
64.616862551239763
20
5.6926219006616208
10
64.86134993152217
20
5.7321428730131885
10
65.104222775803635
20
5.7805331193075205
10
65.345174708603864
20
5.8377257805995697
10
65.583899354442181
20
5.9036539979451419
10
65.820090337838167
20
5.9782509123989058
10
66.053441283311471
20
6.0614496650163829
10
66.283645815381348
20
6.1531833968528105
10
66.510397558567647
20
6.2533852489636388
10
66.733390137389847
20
6.3619883624037499
10
66.95231717636733
20
6.4789258782285941
10
67.166872300019833
20
6.6041309374932666
10
67.376749132866664
20
6.7375366812532889
10
67.581641299427446
20
6.8790762505637559
10
67.781242424221773
20
7.028682786479763
10
67.975246131769055
20
7.1862894300567604
10
68.163346046589069
20
7.3518293223499143
10
68.345235793200942
20
7.5252356044143909
10
68.520608996124565
20
7.7064414173057116
10
68.689159279879576
20
7.8953799020789717
10
68.850580268984942
20
8.0919841997892661
10
69.004565587960769
20
8.2961874514919742
10
69.150808861326269
20
8.5079227982422623
10
69.289003713601076
20
8.7271233810955806
10
69.418843769304857
20
8.9537223411070954
10
69.540022652956736
20
9.1876528193319729
10
69.652233989076748
20
9.4288479568255212
10
69.755171402184075
20
9.6772408946427646
10
69.848528516798481
20
9.9327647738394376
10
69.931998957439262
20
10.195352735470422
10
70.005276348626055
20
10.464937920590884
10
70.068054314878594
20
10.741453470256417
10
70.120026480716078
20
11.024832525521973
10
70.160886470658269
20
11.315008227442931
10
70.190327909224649
20
11.611913717074458
10
70.207695195060253
20
11.909769463134268
10
70.212731740095251
20
12.202764531313761
10
70.205729688776046
20
12.490784958128103
10
70.186981185549485
20
12.773716780092883
10
70.156778374862071
20
13.051446033723408
10
70.115413401160552
20
13.323858755535269
10
70.06317840889146
20
13.590840982043702
10
70.000365542501456
20
13.852278749764082
10
69.927266946437371
20
14.108058095211931
10
69.844174765145581
20
14.358065054902767
10
69.751381143072976
20
14.602185665351897
10
69.649178224666002
20
14.840305963074556
10
69.537858154371264
20
15.072311984586406
10
69.417713076635749
20
15.298089766402754
10
69.289035135905763
20
15.517525345039118
10
69.15211647662808
20
15.730504757010806
10
69.007249243249348
20
15.936914038833336
10
68.854725580216254
20
16.136639227021945
10
68.694837631975489
20
16.329566358092293
10
68.527877542973357
20
16.515581468559475
10
68.354137457656847
20
16.694570594939151
10
68.173909520472591
20
16.866419773746841
10
67.987485875867037
20
17.031015041497639
10
67.795158668286959
20
17.188242434707206
10
67.597220042179075
20
17.337987989890706
10
67.393962141989832
20
17.480137743564015
10
67.185677112166061
20
17.61457773224187
10
66.972657097154354
20
17.741193992440287
10
66.755194241401227
20
17.859872560674432
10
66.533580689353641
20
17.970499473459753
10
66.308108585457845
20
18.07296076731177
10
66.079070074160754
20
18.167142478745646
10
65.846757299908987
20
18.252930644276901
10
65.611462407148977
20
18.330211300421055
10
65.373477540327542
20
18.398870483693486
10
65.13309484389147
20
18.45879423060957
10
64.890606462287067
20
18.509868577684614
10
64.646304539961349
20
18.551979561434493
10
64.40048122136065
20
18.585013218373945
10
64.153428650931772
20
18.60885558501856
10
63.905438973121349
20
18.623392697884285
10
63.656804332376069
20
18.628510593486141
10
63.407816873142352
20
18.624095308339363
10
63.15876873986717
20
18.610032878959615
10
62.909952076996873
20
18.586209341862414
10
62.661659028978264
20
18.552510733562926
10
62.414181740258066
20
18.508823090576598
10
62.16781235528277
20
18.45503244941888
10
61.92284301849908
20
18.391024846605291
10
61.679565874353571
20
18.316686318651278
10
61.438273067293082
20
18.23190290207215
10
61.199256741764074
20
18.136560633383141
10
60.962809042213152
20
18.030545549099912
10
60.729222113087147
20
17.913743685737913
10
60.49878809883257
20
17.786041079812236
10
60.271799143896168
20
17.647323767838969
10
60.048547392724444
20
17.497477786332638
10
59.82932498976426
20
17.336389171809401
10
59.614424079461955
20
17.163943960784138
10
59.40413680626456
20
16.980028189772653
10
59.198755314618374
20
16.78452789529004
10
58.998571748970377
20
16.577329113852102
10
58.803878253766761
20
16.358317881973932
10
58.614966973454571
20
16.127380236170907
10
58.514222997755056
20
16.00692503117628
10
58.40692856776645
20
15.89376293130023
10
58.293485069942349
20
15.788070045944167
10
58.174293890736365
20
15.690022484508717
10
58.049756416602079
20
15.599796356394862
10
57.920274033993273
20
15.517567771003442
10
57.786248129363464
20
15.44351283773544
10
57.648080089166065
20
15.377807665991625
10
57.506171299854962
20
15.320628365172979
10
57.360923147883867
20
15.2721510446802
10
57.212737019706061
20
15.232551813914554
10
57.062014301775449
20
15.202006782276598
10
56.909156380545589
20
15.180692059167171
10
56.75456464246988
20
15.168783753987398
10
56.59864047400216
20
15.166457976137977
10
56.441785261596081
20
15.173890835020032
10
44.599824067734382
20
16.10554415580161
10
44.220703141046265
20
16.141423344551455
10
43.854126298579743
20
16.24458056342398
10
43.51193281362935
20
16.411684160320306
10
43.205174454115252
20
16.637337217260395
10
42.943758545413679
20
16.914251853774829
10
42.736127995062873
20
17.233484602406932
10
42.594094961481375
20
17.620508084762392
10
42.43453839087158
20
17.99847234999838
10
42.257996373284371
20
18.366921585043912
10
42.06500699877067
20
18.725399976828569
10
41.856108357381373
20
19.073451712281866
10
41.631838539167475
20
19.410620978332886
10
41.392735634179694
20
19.736451961911072
10
41.139337732469187
20
20.050488849945864
10
40.872182924086772
20
20.352275829366349
10
40.59180929908338
20
20.641357087102108
10
40.298754947509877
20
20.917276810082583
10
39.993557959417373
20
21.179579185237074
10
39.676756424856464
20
21.427808399494737
10
39.348888433878372
20
21.661508639785154
10
39.010492076533779
20
21.880224093037626
10
38.662105442873781
20
22.083498946181521
10
38.304266622949271
20
22.270877386146068
10
37.937513706811075
20
22.441903599860922
10
37.562384784510257
20
22.596121774255096
10
37.179417946097679
20
22.733076096258102
10
36.78915128162398
20
22.85231075279917
10
36.392122881140594
20
22.953369930808094
10
35.988870834698176
20
23.035797817213748
10
35.579933232347486
20
23.099138598945572
10
35.165848164139689
20
23.142936462933079
10
34.747153720125667
20
23.166735596105781
10
34.324387990356286
20
23.170080185392692
10
33.898089064882591
20
23.152514417723182
10
33.468795033755185
20
23.113582480026906
10
33.037043987025271
20
23.052828559232879
10
32.603374014743679
20
22.969796842270682
10
32.168323206961361
20
22.864031516069709
42
0.76000637891318623
10
32.166778683262081
20
22.671339504234922
10
33.325118238681668
20
22.282934909689942
10
34.444382967398468
20
21.793184849186389
10
35.515726075959279
20
21.205960361914151
10
36.530679548750093
20
20.525902935822131
10
37.481221080137175
20
19.758387820778083
10
38.355486170775407
20
18.913685716671367
10
38.411191896273102
20
18.845708958888139
10
38.45461454007097
20
18.766269722070987
10
38.4826622962388
20
18.68106363952684
10
38.494983884181266
20
18.59244212769454
10
38.491228023303407
20
18.502756603012429
10
38.471043433009591
20
18.414358481918924
10
38.434078832704785
20
18.329599180852654
10
38.37998294179387
20
18.250830116252317
42
-0.029442209602001276
10
38.339998126897491
20
18.208408991148485
42
-0.029442209602166067
10
38.295307203165464
20
18.170978273638028
10
38.213504025061184
20
18.12159030948159
10
38.126724605667093
20
18.089655169548564
10
38.037295740956893
20
18.074684409553328
10
37.947544226904583
20
18.076189585210471
10
37.859796859483893
20
18.093682252234231
10
37.776380434668496
20
18.126673966339268
10
37.699621748432378
20
18.174676283239606
10
37.631847596749196
20
18.237200758650118
10
37.629060239181271
20
18.240352321044782
10
36.903288412251186
20
19.03299075201609
10
36.124933933897282
20
19.79769927002188
10
35.307268740162172
20
20.520221548182391
10
34.452576311715987
20
21.198539809945061
10
33.563243534601966
20
21.830759726615625
10
32.640598419549875
20
22.415447039455643
10
32.304044356973094
20
22.575538648304132
10
31.962285963399367
20
22.726932983307535
42
0.61836867687893826
10
31.823725083533976
20
22.611929252419571
10
32.148360310342277
20
21.293117668545634
10
32.183669738769183
20
21.171903960110754
0
LINE
5
101
100
AcDbEntity
8
0
100
AcDbLine
10
-16.61822087320558
20
-9.0433151759270203
30
0
11
-16.278854570650594
21
-9.2161907380683061
31
0
0
LINE
5
102
100
AcDbEntity
8
0
100
AcDbLine
10
-14.898885975456837
20
-15.095470235481372
30
0
11
-14.854353262712383
21
-14.922662382632481
31
0
0
LINE
5
103
100
AcDbEntity
8
0
100
AcDbLine
10
-15.635430237531924
20
-15.292182666696519
30
0
11
-15.47246288870002
21
-15.367870005860667
31
0
0
LINE
5
104
100
AcDbEntity
8
0
100
AcDbLine
10
-19.1705323418938
20
-16.96545653573871
30
0
11
-18.915169722735747
21
-16.678922282033852
31
0
0
LINE
5
105
100
AcDbEntity
8
0
100
AcDbLine
10
-16.443312873628031
20
-12.931074578492741
30
0
11
-16.106393264778831
21
-13.96890885652418
31
0
0
LINE
5
106
100
AcDbEntity
8
0
100
AcDbLine
10
-14.854353262712383
20
-14.922662382632481
30
0
11
-14.873656024972837
21
-14.745742763428922
31
0
0
LINE
5
107
100
AcDbEntity
8
0
100
AcDbLine
10
-19.483395145661
20
-17.556104173565359
30
0
11
-19.346476915050175
21
-17.25044433519848
31
0
0
LINE
5
108
100
AcDbEntity
8
0
100
AcDbLine
10
-15.158741963999045
20
-15.345267850222584
30
0
11
-15.002415978513914
21
-15.242332308740743
31
0
0
LINE
5
109
100
AcDbEntity
8
0
100
AcDbLine
10
-19.88671529030232
20
-18.721865057049669
30
0
11
-19.710957573711177
21
-18.488776896599859
31
0
0
LINE
5
110
100
AcDbEntity
8
0
100
AcDbLine
10
-15.285631013757106
20
-15.379156721207892
30
0
11
-15.158741963999045
21
-15.345267850222584
31
0
0
LINE
5
111
100
AcDbEntity
8
0
100
AcDbLine
10
-19.578906424365002
20
-17.877121516250227
30
0
11
-19.483395145661
21
-17.556104173565359
31
0
0
LINE
5
112
100
AcDbEntity
8
0
100
AcDbLine
10
-18.548246385756848
20
-8.7020269693848462
30
0
11
-18.323752043120336
21
-8.9995168858272478
31
0
0
LINE
5
113
100
AcDbEntity
8
0
100
AcDbLine
10
-15.760192565311453
20
-15.164589257471661
30
0
11
-15.635430237531924
21
-15.292182666696519
31
0
0
LINE
5
114
100
AcDbEntity
8
0
100
AcDbLine
10
-18.425389059301203
20
-8.404655332861708
30
0
11
-17.807956031581107
21
-8.5732629896033785
31
0
0
LINE
5
115
100
AcDbEntity
8
0
100
AcDbLine
10
-19.278892395455376
20
-9.7673895838084235
30
0
11
-18.957396909268887
21
-8.4478090911493808
31
0
0
LINE
5
116
100
AcDbEntity
8
0
100
AcDbLine
10
-19.317786068156167
20
-10.016653376586788
30
0
11
-19.303588883305956
21
-9.8912023551053352
31
0
0
LINE
5
117
100
AcDbEntity
8
0
100
AcDbLine
10
-18.535302799366768
20
-8.3834664117455304
30
0
11
-18.425389059301203
21
-8.404655332861708
31
0
0
LINE
5
118
100
AcDbEntity
8
0
100
AcDbLine
10
-18.453201499298064
20
-14.977920237308382
30
0
11
-19.296751683865921
21
-10.393928486945043
31
0
0
ARC
5
119
100
AcDbEntity
8
0
100
AcDbCircle
10
-18.556862739830386
20
-8.4811146015249506
30
0
40
0.099999999999991346
100
AcDbArc
50
77.549304576635464
51
226.48956718555633
0
LINE
5
120
100
AcDbEntity
8
0
100
AcDbLine
10
-15.002415978513914
20
-15.242332308740743
30
0
11
-14.898885975456837
21
-15.095470235481372
31
0
0
LINE
5
121
100
AcDbEntity
8
0
100
AcDbLine
10
-15.25866957447044
20
-13.592648812315389
30
0
11
-15.746994501533944
21
-12.472761576777103
31
0
0
LINE
5
122
100
AcDbEntity
8
0
100
AcDbLine
10
-18.56132512793242
20
-16.078591514197669
30
0
11
-18.456631604898391
21
-15.720613748588406
31
0
0
LINE
5
123
100
AcDbEntity
8
0
100
AcDbLine
10
-15.746994501533944
20
-12.472761576777103
30
0
11
-16.332854776878499
21
-11.4006718452314
31
0
0
LINE
5
124
100
AcDbEntity
8
0
100
AcDbLine
10
-18.456631604898391
20
-15.720613748588406
30
0
11
-18.420168396021708
21
-15.349427476166539
31
0
0
LINE
5
125
100
AcDbEntity
8
0
100
AcDbLine
10
-19.303588883305956
20
-9.8912023551053352
30
0
11
-19.278892395455376
21
-9.7673895838084235
31
0
0
LINE
5
126
100
AcDbEntity
8
0
100
AcDbLine
10
-17.279126284756039
20
-10.915993891140729
30
0
11
-16.834588116350062
21
-11.912488059871507
31
0
0
LINE
5
127
100
AcDbEntity
8
0
100
AcDbLine
10
-19.346476915050175
20
-17.25044433519848
30
0
11
-19.1705323418938
21
-16.96545653573871
31
0
0
LINE
5
128
100
AcDbEntity
8
0
100
AcDbLine
10
-17.011619695439091
20
-10.3848535346836
30
0
11
-17.777924223471739
21
-9.4333357865414058
31
0
0
LINE
5
129
100
AcDbEntity
8
0
100
AcDbLine
10
-18.915169722735747
20
-16.678922282033852
30
0
11
-18.730614019261552
21
-16.41093183030236
31
0
0
LINE
5
130
100
AcDbEntity
8
0
100
AcDbLine
10
-18.730614019261552
20
-16.41093183030236
30
0
11
-18.56132512793242
21
-16.078591514197669
31
0
0
ARC
5
131
100
AcDbEntity
8
0
100
AcDbCircle
10
-18.860238888216223
20
-8.4714801482687108
30
0
40
0.10000000000008405
100
AcDbArc
50
39.382129930368436
51
166.3075234330949
0
LINE
5
132
100
AcDbEntity
8
0
100
AcDbLine
10
-17.777924223471739
20
-9.4333357865414058
30
0
11
-18.625711404380112
21
-8.5536395033843604
31
0
0
LINE
5
133
100
AcDbEntity
8
0
100
AcDbLine
10
-17.807956031581107
20
-8.5732629896033785
30
0
11
-17.204491489490792
21
-8.7865295647414143
31
0
0
LINE
5
134
100
AcDbEntity
8
0
100
AcDbLine
10
-20.134849752074373
20
-18.875651123922736
30
0
11
-19.88671529030232
21
-18.721865057049669
31
0
0
LINE
5
135
100
AcDbEntity
8
0
100
AcDbLine
10
-19.631350088129
20
-18.207914806380359
30
0
11
-19.578906424365002
21
-17.877121516250227
31
0
0
LINE
5
136
100
AcDbEntity
8
0
100
AcDbLine
10
-15.47246288870002
20
-15.367870005860667
30
0
11
-15.285631013757106
21
-15.379156721207892
31
0
0
LINE
5
137
100
AcDbEntity
8
0
100
AcDbLine
10
-19.321383373874419
20
-10.142853924287394
30
0
11
-19.317786068156167
21
-10.016653376586788
31
0
0
LINE
5
138
100
AcDbEntity
8
0
100
AcDbLine
10
-16.332854776878499
20
-11.4006718452314
30
0
11
-17.011619695439091
21
-10.3848535346836
31
0
0
LINE
5
139
100
AcDbEntity
8
0
100
AcDbLine
10
-17.775685924124662
20
-9.9443749658237124
30
0
11
-17.279126284756039
21
-10.915993891140729
31
0
0
LINE
5
140
100
AcDbEntity
8
0
100
AcDbLine
10
-16.106393264778831
20
-13.96890885652418
30
0
11
-15.82901181571498
21
-15.007215149837023
31
0
0
LINE
5
141
100
AcDbEntity
8
0
100
AcDbLine
10
-14.873656024972837
20
-14.745742763428922
30
0
11
-15.25866957447044
21
-13.592648812315389
31
0
0
LINE
5
142
100
AcDbEntity
8
0
100
AcDbLine
10
-17.204491489490792
20
-8.7865295647414143
30
0
11
-16.61822087320558
21
-9.0433151759270203
31
0
0
LINE
5
143
100
AcDbEntity
8
0
100
AcDbLine
10
0.46951193756950893
20
-26.010866034663351
30
0
11
0.62031046447725835
21
-26.038920124276146
31
0
0
LINE
5
144
100
AcDbEntity
8
0
100
AcDbLine
10
10.496429497452251
20
-28.154345871448214
30
0
11
10.626546593340951
21
-28.365358443495339
31
0
0
LINE
5
145
100
AcDbEntity
8
0
100
AcDbLine
10
-11.251297581123181
20
-19.098182887124082
30
0
11
-11.080440844900412
21
-19.319499621653549
31
0
0
LINE
5
146
100
AcDbEntity
8
0
100
AcDbLine
10
0.62031046447725835
20
-26.038920124276146
30
0
11
0.7722793334407374
21
-26.057696149389358
31
0
0
LINE
5
147
100
AcDbEntity
8
0
100
AcDbLine
10
1.2308269670915628
20
-26.058217362043123
30
0
11
1.3830961787026563
21
-26.039742653470057
31
0
0
LINE
5
148
100
AcDbEntity
8
0
100
AcDbLine
10
-11.396500822648647
20
-18.859249549253576
30
0
11
-11.251297581123181
21
-19.098182887124082
31
0
0
LINE
5
149
100
AcDbEntity
8
0
100
AcDbLine
10
10.358670471682618
20
-27.948356417929006
30
0
11
10.496429497452251
21
-28.154345871448214
31
0
0
LINE
5
150
100
AcDbEntity
8
0
100
AcDbLine
10
5.3178939964804428
20
-25.105991386579021
30
0
11
5.5746725192878976
21
-25.122836038342413
31
0
0
LINE
5
151
100
AcDbEntity
8
0
100
AcDbLine
10
-15.82901181571498
20
-15.007215149837023
30
0
11
-15.760192565311453
21
-15.164589257471661
31
0
0
LINE
5
152
100
AcDbEntity
8
0
100
AcDbLine
10
-10.886047270013481
20
-19.520457973900918
30
0
11
-10.670525098256176
21
-19.698568374429541
31
0
0
LINE
5
153
100
AcDbEntity
8
0
100
AcDbLine
10
-10.670525098256176
20
-19.698568374429541
30
0
11
-10.436544322718362
21
-19.851624305298614
31
0
0
LINE
5
154
100
AcDbEntity
8
0
100
AcDbLine
10
6.0805419893519641
20
-25.187827653963595
30
0
11
6.3292036911411742
21
-25.235517351440606
31
0
0
LINE
5
155
100
AcDbEntity
8
0
100
AcDbLine
10
9.9016880424231246
20
-27.362813100441201
30
0
11
10.061085121434132
21
-27.552361399235039
31
0
0
LINE
5
156
100
AcDbEntity
8
0
100
AcDbLine
10
5.8289600578227763
20
-25.15019100520071
30
0
11
6.0805419893519641
21
-25.187827653963595
31
0
0
LINE
5
157
100
AcDbEntity
8
0
100
AcDbLine
10
0.17317832015334211
20
-25.926979052213497
30
0
11
0.32032185527566703
21
-25.973547728119613
31
0
0
LINE
5
158
100
AcDbEntity
8
0
100
AcDbLine
10
5.5746725192878976
20
-25.122836038342413
30
0
11
5.8289600578227763
21
-25.15019100520071
31
0
0
LINE
5
159
100
AcDbEntity
8
0
100
AcDbLine
10
-10.436544322718362
20
-19.851624305298614
30
0
11
-0.25159197660826749
21
-25.731909284008694
31
0
0
LINE
5
160
100
AcDbEntity
8
0
100
AcDbLine
10
1.3830961787026563
20
-26.039742653470057
30
0
11
1.5343452195813256
21
-26.011920642553932
31
0
0
LINE
5
161
100
AcDbEntity
8
0
100
AcDbLine
10
-11.514251721366353
20
-18.605659630000915
30
0
11
-11.396500822648647
21
-18.859249549253576
31
0
0
LINE
5
162
100
AcDbEntity
8
0
100
AcDbLine
10
-18.323752043120336
20
-8.9995168858272478
30
0
11
-17.775685924124662
21
-9.9443749658237124
31
0
0
LINE
5
163
100
AcDbEntity
8
0
100
AcDbLine
10
1.8320303789106429
20
-25.9281793234166
30
0
11
1.9775902922459743
21
-25.872232320058473
31
0
0
LINE
5
164
100
AcDbEntity
8
0
100
AcDbLine
10
-0.11321669834643444
20
-25.806145982589186
30
0
11
0.028519434759903817
21
-25.871173854513927
31
0
0
LINE
5
165
100
AcDbEntity
8
0
100
AcDbLine
10
4.5347587497614583
20
-25.120805653760669
30
0
11
4.7977224889836734
21
-25.104747561097938
31
0
0
LINE
5
166
100
AcDbEntity
8
0
100
AcDbLine
10
7.0555211907336002
20
-25.436618404254574
30
0
11
7.2903557462270996
21
-25.522233964686052
31
0
0
LINE
5
167
100
AcDbEntity
8
0
100
AcDbLine
10
4.0041484140382977
20
-25.187425015844767
30
0
11
4.2701625172017899
21
-25.14828859427972
31
0
0
LINE
5
168
100
AcDbEntity
8
0
100
AcDbLine
10
9.0072435178462307
20
-26.508709039612128
30
0
11
9.1984115642520692
21
-26.666282750058201
31
0
0
LINE
5
169
100
AcDbEntity
8
0
100
AcDbLine
10
2.660321634843168
20
-25.56591150102534
30
0
11
2.9302057500202672
21
-25.465078176374334
31
0
0
LINE
5
170
100
AcDbEntity
8
0
100
AcDbLine
10
0.028519434759903817
20
-25.871173854513927
30
0
11
0.17317832015334211
21
-25.926979052213497
31
0
0
LINE
5
171
100
AcDbEntity
8
0
100
AcDbLine
10
7.5211969583120819
20
-25.616759407879854
30
0
11
7.7478302042550773
21
-25.719966100646516
31
0
0
LINE
5
172
100
AcDbEntity
8
0
100
AcDbLine
10
-0.25159197660826749
20
-25.731909284008694
30
0
11
-0.11321669834643444
21
-25.806145982589186
31
0
0
LINE
5
173
100
AcDbEntity
8
0
100
AcDbLine
10
7.7478302042550773
20
-25.719966100646516
30
0
11
7.9700408613227225
21
-25.831625409795222
31
0
0
LINE
5
174
100
AcDbEntity
8
0
100
AcDbLine
10
10.061085121434132
20
-27.552361399235039
30
0
11
10.213484138765239
21
-27.747618716127889
31
0
0
LINE
5
175
100
AcDbEntity
8
0
100
AcDbLine
10
-16.278854570650594
20
-9.2161907380683061
30
0
11
-15.726448603423595
21
-9.5394549226040937
31
0
0
LINE
5
176
100
AcDbEntity
8
0
100
AcDbLine
10
8.8103651461623755
20
-26.35821614640669
30
0
11
9.0072435178462307
21
-26.508709039612128
31
0
0
LINE
5
177
100
AcDbEntity
8
0
100
AcDbLine
10
-11.080440844900412
20
-19.319499621653549
30
0
11
-10.886047270013481
21
-19.520457973900918
31
0
0
LINE
5
178
100
AcDbEntity
8
0
100
AcDbLine
10
2.9302057500202672
20
-25.465078176374334
30
0
11
3.1997451082619399
21
-25.377041498720985
31
0
0
LINE
5
179
100
AcDbEntity
8
0
100
AcDbLine
10
1.6841359871697659
20
-25.974737481725896
30
0
11
1.8320303789106429
21
-25.9281793234166
31
0
0
LINE
5
180
100
AcDbEntity
8
0
100
AcDbLine
10
9.7355075244655609
20
-27.179202452936266
30
0
11
9.9016880424231246
21
-27.362813100441201
31
0
0
LINE
5
181
100
AcDbEntity
8
0
100
AcDbLine
10
2.3903073854645562
20
-25.679770105864392
30
0
11
2.660321634843168
21
-25.56591150102534
31
0
0
LINE
5
182
100
AcDbEntity
8
0
100
AcDbLine
10
-16.834588116350062
20
-11.912488059871507
30
0
11
-16.443312873628031
21
-12.931074578492741
31
0
0
LINE
5
183
100
AcDbEntity
8
0
100
AcDbLine
10
-20.421797589949271
20
-18.92933355887287
30
0
11
-20.134849752074373
21
-18.875651123922736
31
0
0
LINE
5
184
100
AcDbEntity
8
0
100
AcDbLine
10
4.7977224889836734
20
-25.104747561097938
30
0
11
5.0588391121344678
21
-25.09988568310078
31
0
0
LINE
5
185
100
AcDbEntity
8
0
100
AcDbLine
10
9.1984115642520692
20
-26.666282750058201
30
0
11
9.3836546626464923
21
-26.830708644554448
31
0
0
LINE
5
186
100
AcDbEntity
8
0
100
AcDbLine
10
0.32032185527566703
20
-25.973547728119613
30
0
11
0.46951193756950893
21
-26.010866034663351
31
0
0
LINE
5
187
100
AcDbEntity
8
0
100
AcDbLine
10
8.6079910719345243
20
-26.21503270363192
30
0
11
8.8103651461623755
21
-26.35821614640669
31
0
0
LINE
5
188
100
AcDbEntity
8
0
100
AcDbLine
10
6.3292036911411742
20
-25.235517351440606
30
0
11
6.5747305404570966
21
-25.293031464441853
31
0
0
LINE
5
189
100
AcDbEntity
8
0
100
AcDbLine
10
11.418300860624679
20
-30.452787449275078
30
0
11
11.460194407347899
21
-30.701456381134875
31
0
0
LINE
5
190
100
AcDbEntity
8
0
100
AcDbLine
10
11.305363918257392
20
-29.963888578621081
30
0
11
11.366619156683377
21
-30.206855304040374
31
0
0
LINE
5
191
100
AcDbEntity
8
0
100
AcDbLine
10
11.213622943064188
20
-33.552053456413589
30
0
11
11.121318029940461
21
-33.815730438929563
31
0
0
LINE
5
192
100
AcDbEntity
8
0
100
AcDbLine
10
10.898758822690304
20
-34.342149436225426
30
0
11
10.768075283096437
21
-34.604434184624253
31
0
0
LINE
5
193
100
AcDbEntity
8
0
100
AcDbLine
10
10.318896216432165
20
-35.346500931673788
30
0
11
10.149989076456514
21
-35.579900102731301
31
0
0
LINE
5
194
100
AcDbEntity
8
0
100
AcDbLine
10
7.4466813356708528
20
-37.653064938121332
30
0
11
7.2103809501867921
21
-37.741118528334212
31
0
0
LINE
5
195
100
AcDbEntity
8
0
100
AcDbLine
10
0.92498044190290507
20
-26.067180262433922
30
0
11
1.0779756873056279
21
-26.067358615841414
31
0
0
LINE
5
196
100
AcDbEntity
8
0
100
AcDbLine
10
10.213484138765239
20
-27.747618716127889
30
0
11
10.358670471682618
21
-27.948356417929006
31
0
0
LINE
5
197
100
AcDbEntity
8
0
100
AcDbLine
10
7.6801524557699885
20
-37.555094609644257
30
0
11
7.4466813356708528
21
-37.653064938121332
31
0
0
LINE
5
198
100
AcDbEntity
8
0
100
AcDbLine
10
10.626546593340951
20
-28.365358443495339
30
0
11
10.748807136614698
21
-28.581165500880132
31
0
0
LINE
5
199
100
AcDbEntity
8
0
100
AcDbLine
10
11.234749768080636
20
-29.724115906206876
30
0
11
11.305363918257392
21
-29.963888578621081
31
0
0
LINE
5
200
100
AcDbEntity
8
0
100
AcDbLine
10
2.1203776246181327
20
-25.806882624081879
30
0
11
2.3903073854645562
21
-25.679770105864392
31
0
0
LINE
5
201
100
AcDbEntity
8
0
100
AcDbLine
10
8.1876143067810858
20
-25.95150870213601
30
0
11
8.4003359178960224
21
-26.079387344478207
31
0
0
LINE
5
202
100
AcDbEntity
8
0
100
AcDbLine
10
6.5747305404570966
20
-25.293031464441853
30
0
11
6.8169079145656575
21
-25.360141359776591
31
0
0
LINE
5
203
100
AcDbEntity
8
0
100
AcDbLine
10
1.0779756873056279
20
-26.067358615841414
30
0
11
1.2308269670915628
21
-26.058217362043123
31
0
0
LINE
5
204
100
AcDbEntity
8
0
100
AcDbLine
10
0.7722793334407374
20
-26.057696149389358
30
0
11
0.92498044190290507
21
-26.067180262433922
31
0
0
LINE
5
205
100
AcDbEntity
8
0
100
AcDbLine
10
10.149989076456514
20
-35.579900102731301
30
0
11
9.9742835953643905
21
-35.802452357646573
31
0
0
LINE
5
206
100
AcDbEntity
8
0
100
AcDbLine
10
4.2652277448281595
20
-38.050301006873326
30
0
11
4.0199304394587898
21
-38.015948244799134
31
0
0
LINE
5
207
100
AcDbEntity
8
0
100
AcDbLine
10
2.8212270409295392
20
-37.711890353694884
30
0
11
2.589180181511761
21
-37.62512082433858
31
0
0
LINE
5
208
100
AcDbEntity
8
0
100
AcDbLine
10
2.1352227911066279
20
-37.426196231645861
30
0
11
1.9139228871549108
21
-37.314184272598752
31
0
0
LINE
5
209
100
AcDbEntity
8
0
100
AcDbLine
10
-11.603091522089812
20
-18.340554724156348
30
0
11
-11.514251721366353
21
-18.605659630000915
31
0
0
LINE
5
210
100
AcDbEntity
8
0
100
AcDbLine
10
8.4003359178960224
20
-26.079387344478207
30
0
11
8.6079910719345243
21
-26.21503270363192
31
0
0
LINE
5
211
100
AcDbEntity
8
0
100
AcDbLine
10
-11.661919634322375
20
-18.067219079743495
30
0
11
-11.603091522089812
21
-18.340554724156348
31
0
0
LINE
5
212
100
AcDbEntity
8
0
100
AcDbLine
10
4.0199304394587898
20
-38.015948244799134
30
0
11
3.7760782579536034
21
-37.972680474483411
31
0
0
LINE
5
213
100
AcDbEntity
8
0
100
AcDbLine
10
7.2903557462270996
20
-25.522233964686052
30
0
11
7.5211969583120819
21
-25.616759407879854
31
0
0
LINE
5
214
100
AcDbEntity
8
0
100
AcDbLine
10
7.9700408613227225
20
-25.831625409795222
30
0
11
8.1876143067810858
21
-25.95150870213601
31
0
0
LINE
5
215
100
AcDbEntity
8
0
100
AcDbLine
10
5.0588391121344678
20
-25.09988568310078
30
0
11
5.3178939964804428
21
-25.105991386579021
31
0
0
LINE
5
216
100
AcDbEntity
8
0
100
AcDbLine
10
9.5627581902954795
20
-27.001758089910481
30
0
11
9.7355075244655609
21
-27.179202452936266
31
0
0
LINE
5
217
100
AcDbEntity
8
0
100
AcDbLine
10
11.460194407347899
20
-30.701456381134875
30
0
11
11.492085174119282
21
-30.952633466429091
31
0
0
LINE
5
218
100
AcDbEntity
8
0
100
AcDbLine
10
11.492085174119282
20
-30.952633466429091
30
0
11
11.513758538205074
21
-31.206090071967694
31
0
0
LINE
5
219
100
AcDbEntity
8
0
100
AcDbLine
10
1.5343452195813256
20
-26.011920642553932
30
0
11
1.6841359871697659
21
-25.974737481725896
31
0
0
LINE
5
220
100
AcDbEntity
8
0
100
AcDbLine
10
11.016434864060489
20
-34.079171976597351
30
0
11
10.898758822690304
21
-34.342149436225426
31
0
0
LINE
5
221
100
AcDbEntity
8
0
100
AcDbLine
10
9.3836546626464923
20
-26.830708644554448
30
0
11
9.5627581902954795
21
-27.001758089910481
31
0
0
LINE
5
222
100
AcDbEntity
8
0
100
AcDbLine
10
6.7305136371351715
20
-37.887761702545433
30
0
11
6.4875573366029293
21
-37.946494390832797
31
0
0
LINE
5
223
100
AcDbEntity
8
0
100
AcDbLine
10
6.8169079145656575
20
-25.360141359776591
30
0
11
7.0555211907336002
21
-25.436618404254574
31
0
0
LINE
5
224
100
AcDbEntity
8
0
100
AcDbLine
10
4.5116648605439913
20
-38.075667208561441
30
0
11
4.2652277448281595
21
-38.050301006873326
31
0
0
LINE
5
225
100
AcDbEntity
8
0
100
AcDbLine
10
7.9104889969663006
20
-37.447135990758724
30
0
11
7.6801524557699885
21
-37.555094609644257
31
0
0
LINE
5
226
100
AcDbEntity
8
0
100
AcDbLine
10
9.4094302405694741
20
-36.405743146983411
30
0
11
9.20958453019038
21
-36.585623258774334
31
0
0
LINE
5
227
100
AcDbEntity
8
0
100
AcDbLine
10
8.7943831023685526
20
-36.91398756824114
30
0
11
8.5796380119611548
21
-37.062614870205906
31
0
0
LINE
5
228
100
AcDbEntity
8
0
100
AcDbLine
10
11.493985513018412
20
-32.238139032760103
30
0
11
11.461352522670385
21
-32.499563741666222
31
0
0
LINE
5
229
100
AcDbEntity
8
0
100
AcDbLine
10
3.1997451082619399
20
-25.377041498720985
30
0
11
3.4687250868346275
21
-25.301572834875046
31
0
0
LINE
5
230
100
AcDbEntity
8
0
100
AcDbLine
10
11.366619156683377
20
-30.206855304040374
30
0
11
11.418300860624679
21
-30.452787449275078
31
0
0
LINE
5
231
100
AcDbEntity
8
0
100
AcDbLine
10
11.524999876871682
20
-31.461597564560435
30
0
11
11.525594567385156
21
-31.718927311016927
31
0
0
LINE
5
232
100
AcDbEntity
8
0
100
AcDbLine
10
9.0044670462841481
20
-36.755014215145323
30
0
11
8.7943831023685526
21
-36.91398756824114
31
0
0
LINE
5
233
100
AcDbEntity
8
0
100
AcDbLine
10
11.525594567385156
20
-31.718927311016927
30
0
11
11.51532798701199
21
-31.977850678147064
31
0
0
LINE
5
234
100
AcDbEntity
8
0
100
AcDbLine
10
3.4687250868346275
20
-25.301572834875046
30
0
11
3.7369310630047003
21
-25.238443551646412
31
0
0
LINE
5
235
100
AcDbEntity
8
0
100
AcDbLine
10
3.7369310630047003
20
-25.238443551646412
30
0
11
4.0041484140382977
21
-25.187425015844767
31
0
0
LINE
5
236
100
AcDbEntity
8
0
100
AcDbLine
10
4.2701625172017899
20
-25.14828859427972
30
0
11
4.5347587497614583
21
-25.120805653760669
31
0
0
LINE
5
237
100
AcDbEntity
8
0
100
AcDbLine
10
2.3604103270649279
20
-37.529865599607319
30
0
11
2.1352227911066279
21
-37.426196231645861
31
0
0
LINE
5
238
100
AcDbEntity
8
0
100
AcDbLine
10
8.1373856457422633
20
-37.329117529320257
30
0
11
7.9104889969663006
21
-37.447135990758724
31
0
0
LINE
5
239
100
AcDbEntity
8
0
100
AcDbLine
10
1.9775902922459743
20
-25.872232320058473
30
0
11
2.1203776246181327
21
-25.806882624081879
31
0
0
LINE
5
240
100
AcDbEntity
8
0
100
AcDbLine
10
-1.4620522699984129
20
-32.01183321611154
30
0
11
-1.4768514393393861
21
-31.855500910950312
31
0
0
LINE
5
241
100
AcDbEntity
8
0
100
AcDbLine
10
-16.370500725324064
20
-24.688994157656339
30
0
11
-16.94831522193055
21
-24.964280359894673
31
0
0
LINE
5
242
100
AcDbEntity
8
0
100
AcDbLine
10
7.2103809501867921
20
-37.741118528334212
30
0
11
6.9715566128357942
21
-37.819326932427444
31
0
0
LINE
5
243
100
AcDbEntity
8
0
100
AcDbLine
10
-14.515808994181558
20
-23.804509328344707
30
0
11
-14.789816477672568
21
-23.860124256973378
31
0
0
LINE
5
244
100
AcDbEntity
8
0
100
AcDbLine
10
10.768075283096437
20
-34.604434184624253
30
0
11
10.629439854952363
21
-34.856225721336429
31
0
0
LINE
5
245
100
AcDbEntity
8
0
100
AcDbLine
10
1.9139228871549108
20
-37.314184272598752
30
0
11
1.6968159287275864
21
-37.193901274610397
31
0
0
LINE
5
246
100
AcDbEntity
8
0
100
AcDbLine
10
4.7589364730881734
20
-38.091975297718861
30
0
11
4.5116648605439913
21
-38.075667208561441
31
0
0
LINE
5
247
100
AcDbEntity
8
0
100
AcDbLine
10
2.589180181511761
20
-37.62512082433858
30
0
11
2.3604103270649279
21
-37.529865599607319
31
0
0
LINE
5
248
100
AcDbEntity
8
0
100
AcDbLine
10
11.461352522670385
20
-32.499563741666222
30
0
11
11.417214393234936
21
-32.761896171674891
31
0
0
LINE
5
249
100
AcDbEntity
8
0
100
AcDbLine
10
0.14754392231554725
20
-35.942466146151091
30
0
11
-0.018087418093042373
21
-35.750963644192026
31
0
0
LINE
5
250
100
AcDbEntity
8
0
100
AcDbLine
10
-0.327306543285939
20
-35.345363639928138
30
0
11
-0.47028370103463502
21
-35.131409241912408
31
0
0
LINE
5
251
100
AcDbEntity
8
0
100
AcDbLine
10
10.480699701773695
20
-35.102183292329698
30
0
11
10.318896216432165
21
-35.346500931673788
31
0
0
LINE
5
252
100
AcDbEntity
8
0
100
AcDbLine
10
10.862996504539861
20
-28.801538410412064
30
0
11
10.968900074382812
21
-29.026248538901029
31
0
0
LINE
5
253
100
AcDbEntity
8
0
100
AcDbLine
10
11.513758538205074
20
-31.206090071967694
30
0
11
11.524999876871682
21
-31.461597564560435
31
0
0
LINE
5
254
100
AcDbEntity
8
0
100
AcDbLine
10
11.154991328886759
20
-29.487765919988718
30
0
11
11.234749768080636
21
-29.724115906206876
31
0
0
LINE
5
255
100
AcDbEntity
8
0
100
AcDbLine
10
6.4875573366029293
20
-37.946494390832797
30
0
11
6.2429930247569665
21
-37.995596549433728
31
0
0
LINE
5
256
100
AcDbEntity
8
0
100
AcDbLine
10
11.361356501977973
20
-33.024907689595935
30
0
11
11.293564226165689
21
-33.288369662238892
31
0
0
LINE
5
257
100
AcDbEntity
8
0
100
AcDbLine
10
11.121318029940461
20
-33.815730438929563
30
0
11
11.016434864060489
21
-34.079171976597351
31
0
0
LINE
5
258
100
AcDbEntity
8
0
100
AcDbLine
10
6.2429930247569665
20
-37.995596549433728
30
0
11
5.9971260151150574
21
-38.035139730493057
31
0
0
LINE
5
259
100
AcDbEntity
8
0
100
AcDbLine
10
10.629439854952363
20
-34.856225721336429
30
0
11
10.480699701773695
21
-35.102183292329698
31
0
0
LINE
5
260
100
AcDbEntity
8
0
100
AcDbLine
10
6.9715566128357942
20
-37.819326932427444
30
0
11
6.7305136371351715
21
-37.887761702545433
31
0
0
LINE
5
261
100
AcDbEntity
8
0
100
AcDbLine
10
5.5027051565144802
20
-38.085835368564105
30
0
11
5.2547619345912189
21
-38.097130929864704
31
0
0
LINE
5
262
100
AcDbEntity
8
0
100
AcDbLine
10
3.0562455918004794
20
-37.790102635531966
30
0
11
2.8212270409295392
21
-37.711890353694884
31
0
0
LINE
5
263
100
AcDbEntity
8
0
100
AcDbLine
10
9.603698863903336
20
-36.215302327628081
30
0
11
9.4094302405694741
21
-36.405743146983411
31
0
0
LINE
5
264
100
AcDbEntity
8
0
100
AcDbLine
10
11.417214393234936
20
-32.761896171674891
30
0
11
11.361356501977973
21
-33.024907689595935
31
0
0
LINE
5
265
100
AcDbEntity
8
0
100
AcDbLine
10
5.7502616211949764
20
-38.065195486154977
30
0
11
5.5027051565144802
21
-38.085835368564105
31
0
0
LINE
5
266
100
AcDbEntity
8
0
100
AcDbLine
10
10.748807136614698
20
-28.581165500880132
30
0
11
10.862996504539861
21
-28.801538410412064
31
0
0
LINE
5
267
100
AcDbEntity
8
0
100
AcDbLine
10
-15.310901054721455
20
-24.060610920470182
30
0
11
-15.494944965983501
21
-24.16476659097313
31
0
0
LINE
5
268
100
AcDbEntity
8
0
100
AcDbLine
10
1.2764021025163697
20
-36.928808370387216
30
0
11
1.0737058617683015
21
-36.784141568441626
31
0
0
LINE
5
269
100
AcDbEntity
8
0
100
AcDbLine
10
3.5339765138301615
20
-37.920569248070635
30
0
11
3.2939305206065761
21
-37.859686117705422
31
0
0
LINE
5
270
100
AcDbEntity
8
0
100
AcDbLine
10
9.20958453019038
20
-36.585623258774334
30
0
11
9.0044670462841481
21
-36.755014215145323
31
0
0
LINE
5
271
100
AcDbEntity
8
0
100
AcDbLine
10
10.968900074382812
20
-29.026248538901029
30
0
11
11.066303223409584
21
-29.25506725315671
31
0
0
LINE
5
272
100
AcDbEntity
8
0
100
AcDbLine
10
5.9971260151150574
20
-38.035139730493057
30
0
11
5.7502616211949764
21
-38.065195486154977
31
0
0
LINE
5
273
100
AcDbEntity
8
0
100
AcDbLine
10
11.066303223409584
20
-29.25506725315671
30
0
11
11.154991328886759
21
-29.487765919988718
31
0
0
LINE
5
274
100
AcDbEntity
8
0
100
AcDbLine
10
3.2939305206065761
20
-37.859686117705422
30
0
11
3.0562455918004794
21
-37.790102635531966
31
0
0
LINE
5
275
100
AcDbEntity
8
0
100
AcDbLine
10
-1.5775003397786236
20
-31.401795256672784
30
0
11
-1.6290302919800848
21
-31.25689873951579
31
0
0
LINE
5
276
100
AcDbEntity
8
0
100
AcDbLine
10
5.2547619345912189
20
-38.097130929864704
30
0
11
5.0067372689431799
21
-38.099153722201535
31
0
0
LINE
5
277
100
AcDbEntity
8
0
100
AcDbLine
10
11.293564226165689
20
-33.288369662238892
30
0
11
11.213622943064188
21
-33.552053456413589
31
0
0
LINE
5
278
100
AcDbEntity
8
0
100
AcDbLine
10
1.0737058617683015
20
-36.784141568441626
30
0
11
0.87642382061597246
21
-36.631489936132624
31
0
0
LINE
5
279
100
AcDbEntity
8
0
100
AcDbLine
10
-1.2946218623303629
20
-33.161513439646413
30
0
11
-1.3531495421386808
21
-32.884067169262821
31
0
0
LINE
5
280
100
AcDbEntity
8
0
100
AcDbLine
10
1.6968159287275864
20
-37.193901274610397
30
0
11
1.4842072293419761
21
-37.065418789824918
31
0
0
LINE
5
281
100
AcDbEntity
8
0
100
AcDbLine
10
3.7760782579536034
20
-37.972680474483411
30
0
11
3.5339765138301615
21
-37.920569248070635
31
0
0
LINE
5
282
100
AcDbEntity
8
0
100
AcDbLine
10
8.3605370885795693
20
-37.200967673184024
30
0
11
8.1373856457422633
21
-37.329117529320257
31
0
0
LINE
5
283
100
AcDbEntity
8
0
100
AcDbLine
10
8.5796380119611548
20
-37.062614870205906
30
0
11
8.3605370885795693
21
-37.200967673184024
31
0
0
LINE
5
284
100
AcDbEntity
8
0
100
AcDbLine
10
9.9742835953643905
20
-35.802452357646573
30
0
11
9.7920850866740849
21
-36.014229248563723
31
0
0
LINE
5
285
100
AcDbEntity
8
0
100
AcDbLine
10
5.0067372689431799
20
-38.099153722201535
30
0
11
4.7589364730881734
21
-38.091975297718861
31
0
0
LINE
5
286
100
AcDbEntity
8
0
100
AcDbLine
10
11.51532798701199
20
-31.977850678147064
30
0
11
11.493985513018412
21
-32.238139032760103
31
0
0
LINE
5
287
100
AcDbEntity
8
0
100
AcDbLine
10
9.7920850866740849
20
-36.014229248563723
30
0
11
9.603698863903336
21
-36.215302327628081
31
0
0
LINE
5
288
100
AcDbEntity
8
0
100
AcDbLine
10
-2.7129658877216922
20
-29.995133954481545
30
0
11
-12.897918233831733
21
-24.114848975771395
31
0
0
LINE
5
289
100
AcDbEntity
8
0
100
AcDbLine
10
-1.9188905310582083
20
-30.718939086499901
30
0
11
-2.0111354802700721
21
-30.596718197949571
31
0
0
LINE
5
290
100
AcDbEntity
8
0
100
AcDbLine
10
-1.5011798698330914
20
-31.701468826550183
30
0
11
-1.5348065178544612
21
-31.550109447070867
31
0
0
LINE
5
291
100
AcDbEntity
8
0
100
AcDbLine
10
-15.494944965983501
20
-24.16476659097313
30
0
11
-15.814342745768899
21
-24.372228649103604
31
0
0
LINE
5
292
100
AcDbEntity
8
0
100
AcDbLine
10
0.87642382061597246
20
-36.631489936132624
30
0
11
0.68486129257638417
21
-36.470925025604615
31
0
0
LINE
5
293
100
AcDbEntity
8
0
100
AcDbLine
10
-15.814342745768899
20
-24.372228649103604
30
0
11
-16.370500725324064
21
-24.688994157656339
31
0
0
LINE
5
294
100
AcDbEntity
8
0
100
AcDbLine
10
-1.2254896531243809
20
-33.432191266122828
30
0
11
-1.2946218623303629
21
-33.161513439646413
31
0
0
LINE
5
295
100
AcDbEntity
8
0
100
AcDbLine
10
1.4842072293419761
20
-37.065418789824918
30
0
11
1.2764021025163697
21
-36.928808370387216
31
0
0
LINE
5
296
100
AcDbEntity
8
0
100
AcDbLine
10
-0.018087418093042373
20
-35.750963644192026
30
0
11
-0.1764726777994241
21
-35.551905624736122
31
0
0
LINE
5
297
100
AcDbEntity
8
0
100
AcDbLine
10
-20.691060321544448
20
-25.678941185247339
30
0
11
-21.278657102499949
21
-25.621018650984624
31
0
0
LINE
5
298
100
AcDbEntity
8
0
100
AcDbLine
10
-1.8343264939981729
20
-30.846440069091727
30
0
11
-1.9188905310582083
21
-30.718939086499901
31
0
0
LINE
5
299
100
AcDbEntity
8
0
100
AcDbLine
10
-1.5348065178544612
20
-31.550109447070867
30
0
11
-1.5775003397786236
21
-31.401795256672784
31
0
0
LINE
5
300
100
AcDbEntity
8
0
100
AcDbLine
10
-2.0111354802700721
20
-30.596718197949571
30
0
11
-2.1108302980086346
21
-30.480149887600732
31
0
0
LINE
5
301
100
AcDbEntity
8
0
100
AcDbLine
10
-0.47028370103463502
20
-35.131409241912408
30
0
11
-0.60509883752791538
21
-34.91011398283355
31
0
0
LINE
5
302
100
AcDbEntity
8
0
100
AcDbLine
10
-1.146058228037985
20
-33.696029096547093
30
0
11
-1.2254896531243809
21
-33.432191266122828
31
0
0
LINE
5
303
100
AcDbEntity
8
0
100
AcDbLine
10
-0.1764726777994241
20
-35.551905624736122
30
0
11
-0.327306543285939
21
-35.345363639928138
31
0
0
LINE
5
304
100
AcDbEntity
8
0
100
AcDbLine
10
-2.3316453645651869
20
-30.265460938147939
30
0
11
-2.4523035261329351
21
-30.168085267363836
31
0
0
LINE
5
305
100
AcDbEntity
8
0
100
AcDbLine
10
-16.94831522193055
20
-24.964280359894673
30
0
11
-17.54469789159911
21
-25.196615886558931
31
0
0
LINE
5
306
100
AcDbEntity
8
0
100
AcDbLine
10
-13.147458945933064
20
-23.988743645593118
30
0
11
-13.409468163347809
21
-23.891151170036835
31
0
0
LINE
5
307
100
AcDbEntity
8
0
100
AcDbLine
10
-18.156461145849264
20
-25.384758934213281
30
0
11
-18.780335188958865
21
-25.527703902524266
31
0
0
LINE
5
308
100
AcDbEntity
8
0
100
AcDbLine
10
-13.409468163347809
20
-23.891151170036835
30
0
11
-13.680699988940201
21
-23.823280571975971
31
0
0
LINE
5
309
100
AcDbEntity
8
0
100
AcDbLine
10
-2.5794873817268904
20
-30.077852111421777
30
0
11
-2.7129658877216922
21
-29.995133954481545
31
0
0
LINE
5
310
100
AcDbEntity
8
0
100
AcDbLine
10
-1.4768514393393861
20
-31.855500910950312
30
0
11
-1.5011798698330914
21
-31.701468826550183
31
0
0
LINE
5
311
100
AcDbEntity
8
0
100
AcDbLine
10
-17.54469789159911
20
-25.196615886558931
30
0
11
-18.156461145849264
21
-25.384758934213281
31
0
0
LINE
5
312
100
AcDbEntity
8
0
100
AcDbLine
10
-14.789816477672568
20
-23.860124256973378
30
0
11
-15.055946145610219
21
-23.945845439529734
31
0
0
LINE
5
313
100
AcDbEntity
8
0
100
AcDbLine
10
-20.051030628456079
20
-25.675189172919133
30
0
11
-20.691060321544448
21
-25.678941185247339
31
0
0
LINE
5
314
100
AcDbEntity
8
0
100
AcDbLine
10
-1.6891653308339194
20
-31.115792379759739
30
0
11
-1.7576744127150601
21
-30.978848661565124
31
0
0
LINE
5
315
100
AcDbEntity
8
0
100
AcDbLine
10
0.49932359116811043
20
-36.302518389001932
30
0
11
0.32011602990861476
21
-36.126341578469336
31
0
0
LINE
5
316
100
AcDbEntity
8
0
100
AcDbLine
10
-19.412985494600832
20
-25.62468676906569
30
0
11
-20.051030628456079
21
-25.675189172919133
31
0
0
LINE
5
317
100
AcDbEntity
8
0
100
AcDbLine
10
0.68486129257638417
20
-36.470925025604615
30
0
11
0.49932359116811043
21
-36.302518389001932
31
0
0
LINE
5
318
100
AcDbEntity
8
0
100
AcDbLine
10
-2.1108302980086346
20
-30.480149887600732
30
0
11
-2.2177439406486865
21
-30.369606639613451
31
0
0
LINE
5
319
100
AcDbEntity
8
0
100
AcDbLine
10
-21.866253883455542
20
-25.563096116722122
30
0
11
-22.493232231862386
21
-25.434448395170861
31
0
0
LINE
5
320
100
AcDbEntity
8
0
100
AcDbLine
10
-1.3531495421386808
20
-32.884067169262821
30
0
11
-1.4007673790313913
21
-32.59992400711603
31
0
0
LINE
5
321
100
AcDbEntity
8
0
100
AcDbLine
10
-13.957794271436743
20
-23.785972665264126
30
0
11
-14.237318232606242
21
-23.779689638326431
31
0
0
LINE
5
322
100
AcDbEntity
8
0
100
AcDbLine
10
-2.4523035261329351
20
-30.168085267363836
30
0
11
-2.5794873817268904
21
-30.077852111421777
31
0
0
LINE
5
323
100
AcDbEntity
8
0
100
AcDbLine
10
-0.73144663924755271
20
-34.681549414835899
30
0
11
-0.84902179267641209
21
-34.445787090063931
31
0
0
LINE
5
324
100
AcDbEntity
8
0
100
AcDbLine
10
-15.055946145610219
20
-23.945845439529734
30
0
11
-15.310901054721455
21
-24.060610920470182
31
0
0
LINE
5
325
100
AcDbEntity
8
0
100
AcDbLine
10
-13.680699988940201
20
-23.823280571975971
30
0
11
-13.957794271436743
21
-23.785972665264126
31
0
0
LINE
5
326
100
AcDbEntity
8
0
100
AcDbLine
10
-1.0566329005893671
20
-33.952955378775016
30
0
11
-1.146058228037985
21
-33.696029096547093
31
0
0
LINE
5
327
100
AcDbEntity
8
0
100
AcDbLine
10
-1.7576744127150601
20
-30.978848661565124
30
0
11
-1.8343264939981729
21
-30.846440069091727
31
0
0
LINE
5
328
100
AcDbEntity
8
0
100
AcDbLine
10
-2.2177439406486865
20
-30.369606639613451
30
0
11
-2.3316453645651869
21
-30.265460938147939
31
0
0
LINE
5
329
100
AcDbEntity
8
0
100
AcDbLine
10
-21.278657102499949
20
-25.621018650984624
30
0
11
-21.866253883455542
21
-25.563096116722122
31
0
0
LINE
5
330
100
AcDbEntity
8
0
100
AcDbLine
10
-0.60509883752791538
20
-34.91011398283355
30
0
11
-0.73144663924755271
21
-34.681549414835899
31
0
0
LINE
5
331
100
AcDbEntity
8
0
100
AcDbLine
10
-18.780335188958865
20
-25.527703902524266
30
0
11
-19.412985494600832
21
-25.62468676906569
31
0
0
LINE
5
332
100
AcDbEntity
8
0
100
AcDbLine
10
-14.237318232606242
20
-23.779689638326431
30
0
11
-14.515808994181558
21
-23.804509328344707
31
0
0
LINE
5
333
100
AcDbEntity
8
0
100
AcDbLine
10
-0.84902179267641209
20
-34.445787090063931
30
0
11
-0.9575189842961418
21
-34.202898560662049
31
0
0
LINE
5
334
100
AcDbEntity
8
0
100
AcDbLine
10
-1.6290302919800848
20
-31.25689873951579
30
0
11
-1.6891653308339194
21
-31.115792379759739
31
0
0
LINE
5
335
100
AcDbEntity
8
0
100
AcDbLine
10
-1.4007673790313913
20
-32.59992400711603
30
0
11
-1.4371700594906578
21
-32.309155505350873
31
0
0
LINE
5
336
100
AcDbEntity
8
0
100
AcDbLine
10
-1.4371700594906578
20
-32.309155505350873
30
0
11
-1.4620522699984129
21
-32.01183321611154
31
0
0
LINE
5
337
100
AcDbEntity
8
0
100
AcDbLine
10
0.32011602990861476
20
-36.126341578469336
30
0
11
0.14754392231554725
21
-35.942466146151091
31
0
0
LINE
5
338
100
AcDbEntity
8
0
100
AcDbLine
10
-12.897918233831733
20
-24.114848975771395
30
0
11
-13.147458945933064
21
-23.988743645593118
31
0
0
LINE
5
339
100
AcDbEntity
8
0
100
AcDbLine
10
-0.9575189842961418
20
-34.202898560662049
30
0
11
-1.0566329005893671
21
-33.952955378775016
31
0
0
LINE
5
340
100
AcDbEntity
8
0
100
AcDbLine
10
-27.16283989526363
20
-23.823280571975971
30
0
11
-27.434071720856075
21
-23.891151170036835
31
0
0
LINE
5
341
100
AcDbEntity
8
0
100
AcDbLine
10
-39.697481656165841
20
-33.696029096547093
30
0
11
-39.786906983614465
21
-33.952955378775016
31
0
0
LINE
5
342
100
AcDbEntity
8
0
100
AcDbLine
10
-39.886020899907685
20
-34.202898560662049
30
0
11
-39.994518091527418
21
-34.445787090063931
31
0
0
LINE
5
343
100
AcDbEntity
8
0
100
AcDbLine
10
-24.294629169345335
20
-24.779687124472076
30
0
11
-24.857882164998433
21
-24.475716486878341
31
0
0
LINE
5
344
100
AcDbEntity
8
0
100
AcDbLine
10
-38.732709586195199
20
-30.480149887600732
30
0
11
-38.832404403933751
21
-30.596718197949571
31
0
0
LINE
5
345
100
AcDbEntity
8
0
100
AcDbLine
10
-23.109136048832724
20
-25.260337585992616
30
0
11
-23.710673407870608
21
-25.041694289015126
31
0
0
LINE
5
346
100
AcDbEntity
8
0
100
AcDbLine
10
-39.085865471488773
20
-30.978848661565124
30
0
11
-39.154374553369891
21
-31.115792379759739
31
0
0
LINE
5
347
100
AcDbEntity
8
0
100
AcDbLine
10
-24.857882164998433
20
-24.475716486878341
30
0
11
-25.397421880186073
21
-24.131407060102603
31
0
0
LINE
5
348
100
AcDbEntity
8
0
100
AcDbLine
10
-40.991083806519377
20
-35.942466146151091
30
0
11
-41.163655914112439
21
-36.126341578469336
31
0
0
LINE
5
349
100
AcDbEntity
8
0
100
AcDbLine
10
-41.528401176780214
20
-36.470925025604615
30
0
11
-41.71996370481979
21
-36.631489936132624
31
0
0
LINE
5
350
100
AcDbEntity
8
0
100
AcDbLine
10
-22.493232231862386
20
-25.434448395170861
30
0
11
-23.109136048832724
21
-25.260337585992616
31
0
0
LINE
5
351
100
AcDbEntity
8
0
100
AcDbLine
10
-39.308733366349365
20
-31.550109447070867
30
0
11
-39.34236001437074
21
-31.701468826550183
31
0
0
LINE
5
352
100
AcDbEntity
8
0
100
AcDbLine
10
-42.119941986720221
20
-36.928808370387216
30
0
11
-42.327747113545783
21
-37.065418789824918
31
0
0
LINE
5
353
100
AcDbEntity
8
0
100
AcDbLine
10
-39.994518091527418
20
-34.445787090063931
30
0
11
-40.11209324495627
21
-34.681549414835899
31
0
0
LINE
5
354
100
AcDbEntity
8
0
100
AcDbLine
10
-26.327730890022274
20
-23.804509328344707
30
0
11
-26.606221651597586
21
-23.779689638326431
31
0
0
LINE
5
355
100
AcDbEntity
8
0
100
AcDbLine
10
-39.366688444864451
20
-31.855500910950312
30
0
11
-39.381487614205412
21
-32.01183321611154
31
0
0
LINE
5
356
100
AcDbEntity
8
0
100
AcDbLine
10
-25.787593738593671
20
-23.945845439529734
30
0
11
-26.053723406531326
21
-23.860124256973378
31
0
0
LINE
5
357
100
AcDbEntity
8
0
100
AcDbLine
10
-27.434071720856075
20
-23.891151170036835
30
0
11
-27.696080938270818
21
-23.988743645593118
31
0
0
LINE
5
358
100
AcDbEntity
8
0
100
AcDbLine
10
-39.009213390205666
20
-30.846440069091727
30
0
11
-39.085865471488773
21
-30.978848661565124
31
0
0
LINE
5
359
100
AcDbEntity
8
0
100
AcDbLine
10
-23.710673407870608
20
-25.041694289015126
30
0
11
-24.294629169345335
21
-24.779687124472076
31
0
0
LINE
5
360
100
AcDbEntity
8
0
100
AcDbLine
10
-39.49039034206514
20
-32.884067169262821
30
0
11
-39.548918021873462
21
-33.161513439646413
31
0
0
LINE
5
361
100
AcDbEntity
8
0
100
AcDbLine
10
-25.397421880186073
20
-24.131407060102603
30
0
11
-25.53263882948243
21
-24.060610920470182
31
0
0
LINE
5
362
100
AcDbEntity
8
0
100
AcDbLine
10
-26.053723406531326
20
-23.860124256973378
30
0
11
-26.327730890022274
21
-23.804509328344707
31
0
0
LINE
5
363
100
AcDbEntity
8
0
100
AcDbLine
10
-42.327747113545783
20
-37.065418789824918
30
0
11
-42.540355812931409
21
-37.193901274610397
31
0
0
LINE
5
364
100
AcDbEntity
8
0
100
AcDbLine
10
-26.606221651597586
20
-23.779689638326431
30
0
11
-26.885745612767138
21
-23.785972665264126
31
0
0
LINE
5
365
100
AcDbEntity
8
0
100
AcDbLine
10
-38.511894519638638
20
-30.265460938147939
30
0
11
-38.625795943555133
21
-30.369606639613451
31
0
0
LINE
5
366
100
AcDbEntity
8
0
100
AcDbLine
10
-39.214509592223749
20
-31.25689873951579
30
0
11
-39.266039544425205
21
-31.401795256672784
31
0
0
LINE
5
367
100
AcDbEntity
8
0
100
AcDbLine
10
-40.825452466110789
20
-35.750963644192026
30
0
11
-40.991083806519377
21
-35.942466146151091
31
0
0
LINE
5
368
100
AcDbEntity
8
0
100
AcDbLine
10
-39.154374553369891
20
-31.115792379759739
30
0
11
-39.214509592223749
21
-31.25689873951579
31
0
0
LINE
5
369
100
AcDbEntity
8
0
100
AcDbLine
10
-41.71996370481979
20
-36.631489936132624
30
0
11
-41.917245745972124
21
-36.784141568441626
31
0
0
LINE
5
370
100
AcDbEntity
8
0
100
AcDbLine
10
-42.540355812931409
20
-37.193901274610397
30
0
11
-42.757462771358739
21
-37.314184272598752
31
0
0
LINE
5
371
100
AcDbEntity
8
0
100
AcDbLine
10
-38.924649353145639
20
-30.718939086499901
30
0
11
-39.009213390205666
21
-30.846440069091727
31
0
0
LINE
5
372
100
AcDbEntity
8
0
100
AcDbLine
10
-39.442772505172449
20
-32.59992400711603
30
0
11
-39.49039034206514
21
-32.884067169262821
31
0
0
LINE
5
373
100
AcDbEntity
8
0
100
AcDbLine
10
-39.381487614205412
20
-32.01183321611154
30
0
11
-39.406369824713174
21
-32.309155505350873
31
0
0
LINE
5
374
100
AcDbEntity
8
0
100
AcDbLine
10
-40.516233340917879
20
-35.345363639928138
30
0
11
-40.66706720640439
21
-35.551905624736122
31
0
0
LINE
5
375
100
AcDbEntity
8
0
100
AcDbLine
10
-26.885745612767138
20
-23.785972665264126
30
0
11
-27.16283989526363
21
-23.823280571975971
31
0
0
LINE
5
376
100
AcDbEntity
8
0
100
AcDbLine
10
-41.917245745972124
20
-36.784141568441626
30
0
11
-42.119941986720221
21
-36.928808370387216
31
0
0
LINE
5
377
100
AcDbEntity
8
0
100
AcDbLine
10
-40.238441046675902
20
-34.91011398283355
30
0
11
-40.37325618316919
21
-35.131409241912408
31
0
0
LINE
5
378
100
AcDbEntity
8
0
100
AcDbLine
10
-38.625795943555133
20
-30.369606639613451
30
0
11
-38.732709586195199
21
-30.480149887600732
31
0
0
LINE
5
379
100
AcDbEntity
8
0
100
AcDbLine
10
-38.391236358070884
20
-30.168085267363836
30
0
11
-38.511894519638638
21
-30.265460938147939
31
0
0
LINE
5
380
100
AcDbEntity
8
0
100
AcDbLine
10
-52.357298422408903
20
-31.206090071967694
30
0
11
-52.335625058323089
21
-30.952633466429091
31
0
0
LINE
5
381
100
AcDbEntity
8
0
100
AcDbLine
10
-46.346245040718301
20
-38.085835368564105
30
0
11
-46.593801505398801
21
-38.065195486154977
31
0
0
LINE
5
382
100
AcDbEntity
8
0
100
AcDbLine
10
-52.07828965228444
20
-29.724115906206876
30
0
11
-51.998531213090573
21
-29.487765919988718
31
0
0
LINE
5
383
100
AcDbEntity
8
0
100
AcDbLine
10
-51.47008647754474
20
-28.365358443495339
30
0
11
-51.339969381656054
21
-28.154345871448214
31
0
0
LINE
5
384
100
AcDbEntity
8
0
100
AcDbLine
10
-42.757462771358739
20
-37.314184272598752
30
0
11
-42.978762675310456
21
-37.426196231645861
31
0
0
LINE
5
385
100
AcDbEntity
8
0
100
AcDbLine
10
-43.664766925133385
20
-37.711890353694884
30
0
11
-43.899785476004283
21
-37.790102635531966
31
0
0
LINE
5
386
100
AcDbEntity
8
0
100
AcDbLine
10
-39.406369824713174
20
-32.309155505350873
30
0
11
-39.442772505172449
21
-32.59992400711603
31
0
0
LINE
5
387
100
AcDbEntity
8
0
100
AcDbLine
10
-52.057162827267987
20
-33.552053456413589
30
0
11
-52.137104110369528
21
-33.288369662238892
31
0
0
LINE
5
388
100
AcDbEntity
8
0
100
AcDbLine
10
-51.32423958597748
20
-35.102183292329698
30
0
11
-51.472979739156145
21
-34.856225721336429
31
0
0
LINE
5
389
100
AcDbEntity
8
0
100
AcDbLine
10
-46.840665899318864
20
-38.035139730493057
30
0
11
-47.086532908960791
21
-37.995596549433728
31
0
0
LINE
5
390
100
AcDbEntity
8
0
100
AcDbLine
10
-41.163655914112439
20
-36.126341578469336
30
0
11
-41.342863475371921
21
-36.302518389001932
31
0
0
LINE
5
391
100
AcDbEntity
8
0
100
AcDbLine
10
-38.130573996482148
20
-29.995133954481545
30
0
11
-38.264052502476936
21
-30.077852111421777
31
0
0
LINE
5
392
100
AcDbEntity
8
0
100
AcDbLine
10
-40.37325618316919
20
-35.131409241912408
30
0
11
-40.516233340917879
21
-35.345363639928138
31
0
0
LINE
5
393
100
AcDbEntity
8
0
100
AcDbLine
10
-25.53263882948243
20
-24.060610920470182
30
0
11
-25.787593738593671
21
-23.945845439529734
31
0
0
LINE
5
394
100
AcDbEntity
8
0
100
AcDbLine
10
-43.432720065715607
20
-37.62512082433858
30
0
11
-43.664766925133385
21
-37.711890353694884
31
0
0
LINE
5
395
100
AcDbEntity
8
0
100
AcDbLine
10
-45.355204744747809
20
-38.075667208561441
30
0
11
-45.602476357291991
21
-38.091975297718861
31
0
0
LINE
5
396
100
AcDbEntity
8
0
100
AcDbLine
10
-52.148903802461192
20
-29.963888578621081
30
0
11
-52.07828965228444
21
-29.724115906206876
31
0
0
LINE
5
397
100
AcDbEntity
8
0
100
AcDbLine
10
-50.635624970877906
20
-36.014229248563723
30
0
11
-50.81782347956819
21
-35.802452357646573
31
0
0
LINE
5
398
100
AcDbEntity
8
0
100
AcDbLine
10
-39.618050231079451
20
-33.432191266122828
30
0
11
-39.697481656165841
21
-33.696029096547093
31
0
0
LINE
5
399
100
AcDbEntity
8
0
100
AcDbLine
10
-52.358867871215757
20
-31.977850678147064
30
0
11
-52.369134451588977
21
-31.718927311016927
31
0
0
LINE
5
400
100
AcDbEntity
8
0
100
AcDbLine
10
-52.137104110369528
20
-33.288369662238892
30
0
11
-52.204896386181773
21
-33.024907689595935
31
0
0
LINE
5
401
100
AcDbEntity
8
0
100
AcDbLine
10
-41.342863475371921
20
-36.302518389001932
30
0
11
-41.528401176780214
21
-36.470925025604615
31
0
0
LINE
5
402
100
AcDbEntity
8
0
100
AcDbLine
10
-51.742298706894125
20
-34.342149436225426
30
0
11
-51.859974748264321
21
-34.079171976597351
31
0
0
LINE
5
403
100
AcDbEntity
8
0
100
AcDbLine
10
-39.266039544425205
20
-31.401795256672784
30
0
11
-39.308733366349365
21
-31.550109447070867
31
0
0
LINE
5
404
100
AcDbEntity
8
0
100
AcDbLine
10
-52.210159040887177
20
-30.206855304040374
30
0
11
-52.148903802461192
21
-29.963888578621081
31
0
0
LINE
5
405
100
AcDbEntity
8
0
100
AcDbLine
10
-44.137470404810408
20
-37.859686117705422
30
0
11
-44.377516398034004
21
-37.920569248070635
31
0
0
LINE
5
406
100
AcDbEntity
8
0
100
AcDbLine
10
-49.423177896164972
20
-37.062614870205906
30
0
11
-49.637922986572384
21
-36.91398756824114
31
0
0
LINE
5
407
100
AcDbEntity
8
0
100
AcDbLine
10
-44.619618142157421
20
-37.972680474483411
30
0
11
-44.863470323662618
21
-38.015948244799134
31
0
0
LINE
5
408
100
AcDbEntity
8
0
100
AcDbLine
10
-46.593801505398801
20
-38.065195486154977
30
0
11
-46.840665899318864
21
-38.035139730493057
31
0
0
LINE
5
409
100
AcDbEntity
8
0
100
AcDbLine
10
-46.098301818795051
20
-38.097130929864704
30
0
11
-46.346245040718301
21
-38.085835368564105
31
0
0
LINE
5
410
100
AcDbEntity
8
0
100
AcDbLine
10
-45.602476357291991
20
-38.091975297718861
30
0
11
-45.850277153147026
21
-38.099153722201535
31
0
0
LINE
5
411
100
AcDbEntity
8
0
100
AcDbLine
10
-47.086532908960791
20
-37.995596549433728
30
0
11
-47.331097220806768
21
-37.946494390832797
31
0
0
LINE
5
412
100
AcDbEntity
8
0
100
AcDbLine
10
-48.980925529946084
20
-37.329117529320257
30
0
11
-49.204076972783412
21
-37.200967673184024
31
0
0
LINE
5
413
100
AcDbEntity
8
0
100
AcDbLine
10
-42.978762675310456
20
-37.426196231645861
30
0
11
-43.203950211268761
21
-37.529865599607319
31
0
0
LINE
5
414
100
AcDbEntity
8
0
100
AcDbLine
10
-43.899785476004283
20
-37.790102635531966
30
0
11
-44.137470404810408
21
-37.859686117705422
31
0
0
LINE
5
415
100
AcDbEntity
8
0
100
AcDbLine
10
-27.696080938270818
20
-23.988743645593118
30
0
11
-27.945621650372104
21
-24.114848975771395
31
0
0
LINE
5
416
100
AcDbEntity
8
0
100
AcDbLine
10
-51.706536388743665
20
-28.801538410412064
30
0
11
-51.59234702081848
21
-28.581165500880132
31
0
0
LINE
5
417
100
AcDbEntity
8
0
100
AcDbLine
10
-38.832404403933751
20
-30.596718197949571
30
0
11
-38.924649353145639
21
-30.718939086499901
31
0
0
LINE
5
418
100
AcDbEntity
8
0
100
AcDbLine
10
-40.66706720640439
20
-35.551905624736122
30
0
11
-40.825452466110789
21
-35.750963644192026
31
0
0
LINE
5
419
100
AcDbEntity
8
0
100
AcDbLine
10
-39.34236001437074
20
-31.701468826550183
30
0
11
-39.366688444864451
21
-31.855500910950312
31
0
0
LINE
5
420
100
AcDbEntity
8
0
100
AcDbLine
10
-40.11209324495627
20
-34.681549414835899
30
0
11
-40.238441046675902
21
-34.91011398283355
31
0
0
LINE
5
421
100
AcDbEntity
8
0
100
AcDbLine
10
-51.59234702081848
20
-28.581165500880132
30
0
11
-51.47008647754474
21
-28.365358443495339
31
0
0
LINE
5
422
100
AcDbEntity
8
0
100
AcDbLine
10
-51.611615167300258
20
-34.604434184624253
30
0
11
-51.742298706894125
21
-34.342149436225426
31
0
0
LINE
5
423
100
AcDbEntity
8
0
100
AcDbLine
10
-39.548918021873462
20
-33.161513439646413
30
0
11
-39.618050231079451
21
-33.432191266122828
31
0
0
LINE
5
424
100
AcDbEntity
8
0
100
AcDbLine
10
-45.108767629032002
20
-38.050301006873326
30
0
11
-45.355204744747809
21
-38.075667208561441
31
0
0
LINE
5
425
100
AcDbEntity
8
0
100
AcDbLine
10
-44.377516398034004
20
-37.920569248070635
30
0
11
-44.619618142157421
21
-37.972680474483411
31
0
0
LINE
5
426
100
AcDbEntity
8
0
100
AcDbLine
10
-47.331097220806768
20
-37.946494390832797
30
0
11
-47.57405352133901
21
-37.887761702545433
31
0
0
LINE
5
427
100
AcDbEntity
8
0
100
AcDbLine
10
-43.203950211268761
20
-37.529865599607319
30
0
11
-43.432720065715607
21
-37.62512082433858
31
0
0
LINE
5
428
100
AcDbEntity
8
0
100
AcDbLine
10
-27.945621650372104
20
-24.114848975771395
30
0
11
-38.130573996482148
21
-29.995133954481545
31
0
0
LINE
5
429
100
AcDbEntity
8
0
100
AcDbLine
10
-38.264052502476936
20
-30.077852111421777
30
0
11
-38.391236358070884
21
-30.168085267363836
31
0
0
LINE
5
430
100
AcDbEntity
8
0
100
AcDbLine
10
-44.863470323662618
20
-38.015948244799134
30
0
11
-45.108767629032002
21
-38.050301006873326
31
0
0
LINE
5
431
100
AcDbEntity
8
0
100
AcDbLine
10
-49.637922986572384
20
-36.91398756824114
30
0
11
-49.848006930487983
21
-36.755014215145323
31
0
0
LINE
5
432
100
AcDbEntity
8
0
100
AcDbLine
10
-52.368539761075468
20
-31.461597564560435
30
0
11
-52.357298422408903
21
-31.206090071967694
31
0
0
LINE
5
433
100
AcDbEntity
8
0
100
AcDbLine
10
-50.447238748107154
20
-36.215302327628081
30
0
11
-50.635624970877906
21
-36.014229248563723
31
0
0
LINE
5
434
100
AcDbEntity
8
0
100
AcDbLine
10
-39.786906983614465
20
-33.952955378775016
30
0
11
-39.886020899907685
21
-34.202898560662049
31
0
0
LINE
5
435
100
AcDbEntity
8
0
100
AcDbLine
10
-51.998531213090573
20
-29.487765919988718
30
0
11
-51.909843107613383
21
-29.25506725315671
31
0
0
LINE
5
436
100
AcDbEntity
8
0
100
AcDbLine
10
-47.815096497039619
20
-37.819326932427444
30
0
11
-48.05392083439061
21
-37.741118528334212
31
0
0
LINE
5
437
100
AcDbEntity
8
0
100
AcDbLine
10
-48.754028881170143
20
-37.447135990758724
30
0
11
-48.980925529946084
21
-37.329117529320257
31
0
0
LINE
5
438
100
AcDbEntity
8
0
100
AcDbLine
10
-52.260754277438721
20
-32.761896171674891
30
0
11
-52.304892406874202
21
-32.499563741666222
31
0
0
LINE
5
439
100
AcDbEntity
8
0
100
AcDbLine
10
-40.872059318963743
20
-25.871173854513927
30
0
11
-40.730323185857394
21
-25.806145982589186
31
0
0
LINE
5
440
100
AcDbEntity
8
0
100
AcDbLine
10
-49.653905030366197
20
-26.35821614640669
30
0
11
-49.451530956138342
21
-26.21503270363192
31
0
0
LINE
5
441
100
AcDbEntity
8
0
100
AcDbLine
10
-48.591370088458902
20
-25.719966100646516
30
0
11
-48.364736842515924
21
-25.616759407879854
31
0
0
LINE
5
442
100
AcDbEntity
8
0
100
AcDbLine
10
-29.329288162837479
20
-18.605659630000915
30
0
11
-29.240448362114073
21
-18.340554724156348
31
0
0
LINE
5
443
100
AcDbEntity
8
0
100
AcDbLine
10
-51.964857914144304
20
-33.815730438929563
30
0
11
-52.057162827267987
21
-33.552053456413589
31
0
0
LINE
5
444
100
AcDbEntity
8
0
100
AcDbLine
10
-50.252970124773256
20
-36.405743146983411
30
0
11
-50.447238748107154
21
-36.215302327628081
31
0
0
LINE
5
445
100
AcDbEntity
8
0
100
AcDbLine
10
-51.909843107613383
20
-29.25506725315671
30
0
11
-51.812439958586616
21
-29.026248538901029
31
0
0
LINE
5
446
100
AcDbEntity
8
0
100
AcDbLine
10
-48.290221219874674
20
-37.653064938121332
30
0
11
-48.523692339973806
21
-37.555094609644257
31
0
0
LINE
5
447
100
AcDbEntity
8
0
100
AcDbLine
10
-29.592242303080685
20
-19.098182887124082
30
0
11
-29.447039061555174
21
-18.859249549253576
31
0
0
LINE
5
448
100
AcDbEntity
8
0
100
AcDbLine
10
-49.850783402050062
20
-26.508709039612128
30
0
11
-49.653905030366197
21
-26.35821614640669
31
0
0
LINE
5
449
100
AcDbEntity
8
0
100
AcDbLine
10
-29.157697915997787
20
-16.356604974569606
30
0
11
-29.092624895728356
21
-15.719880868174627
31
0
0
LINE
5
450
100
AcDbEntity
8
0
100
AcDbLine
10
-50.745227926626917
20
-27.362813100441201
30
0
11
-50.579047408669382
21
-27.179202452936266
31
0
0
LINE
5
451
100
AcDbEntity
8
0
100
AcDbLine
10
-45.641262373187473
20
-25.104747561097938
30
0
11
-45.378298633965301
21
-25.120805653760669
31
0
0
LINE
5
452
100
AcDbEntity
8
0
100
AcDbLine
10
-48.133895630430899
20
-25.522233964686052
30
0
11
-47.899061074937421
21
-25.436618404254574
31
0
0
LINE
5
453
100
AcDbEntity
8
0
100
AcDbLine
10
-50.053124414394219
20
-36.585623258774334
30
0
11
-50.252970124773256
21
-36.405743146983411
31
0
0
LINE
5
454
100
AcDbEntity
8
0
100
AcDbLine
10
-52.30373429155172
20
-30.701456381134875
30
0
11
-52.261840744828518
21
-30.452787449275078
31
0
0
LINE
5
455
100
AcDbEntity
8
0
100
AcDbLine
10
-52.304892406874202
20
-32.499563741666222
30
0
11
-52.337525397222187
21
-32.238139032760103
31
0
0
LINE
5
456
100
AcDbEntity
8
0
100
AcDbLine
10
-48.523692339973806
20
-37.555094609644257
30
0
11
-48.754028881170143
21
-37.447135990758724
31
0
0
LINE
5
457
100
AcDbEntity
8
0
100
AcDbLine
10
-48.05392083439061
20
-37.741118528334212
30
0
11
-48.290221219874674
21
-37.653064938121332
31
0
0
LINE
5
458
100
AcDbEntity
8
0
100
AcDbLine
10
-44.312264971038466
20
-25.301572834875046
30
0
11
-44.043284992465757
21
-25.377041498720985
31
0
0
LINE
5
459
100
AcDbEntity
8
0
100
AcDbLine
10
-29.147667266907192
20
-17.635791509450769
30
0
11
-29.176078119663707
21
-16.996381696359819
31
0
0
LINE
5
460
100
AcDbEntity
8
0
100
AcDbLine
10
-28.98120686575913
20
-15.089612585433727
30
0
11
-28.824039341095713
21
-14.46916882906045
31
0
0
LINE
5
461
100
AcDbEntity
8
0
100
AcDbLine
10
-42.226636062906486
20
-26.039742653470057
30
0
11
-42.07436685129538
21
-26.058217362043123
31
0
0
LINE
5
462
100
AcDbEntity
8
0
100
AcDbLine
10
-45.850277153147026
20
-38.099153722201535
30
0
11
-46.098301818795051
21
-38.097130929864704
31
0
0
LINE
5
463
100
AcDbEntity
8
0
100
AcDbLine
10
-52.261840744828518
20
-30.452787449275078
30
0
11
-52.210159040887177
21
-30.206855304040374
31
0
0
LINE
5
464
100
AcDbEntity
8
0
100
AcDbLine
10
-52.204896386181773
20
-33.024907689595935
30
0
11
-52.260754277438721
21
-32.761896171674891
31
0
0
LINE
5
465
100
AcDbEntity
8
0
100
AcDbLine
10
-29.447039061555174
20
-18.859249549253576
30
0
11
-29.329288162837479
21
-18.605659630000915
31
0
0
LINE
5
466
100
AcDbEntity
8
0
100
AcDbLine
10
-52.369134451588977
20
-31.718927311016927
30
0
11
-52.368539761075468
21
-31.461597564560435
31
0
0
LINE
5
467
100
AcDbEntity
8
0
100
AcDbLine
10
-48.813580745526544
20
-25.831625409795222
30
0
11
-48.591370088458902
21
-25.719966100646516
31
0
0
LINE
5
468
100
AcDbEntity
8
0
100
AcDbLine
10
-52.335625058323089
20
-30.952633466429091
30
0
11
-52.30373429155172
21
-30.701456381134875
31
0
0
LINE
5
469
100
AcDbEntity
8
0
100
AcDbLine
10
-51.812439958586616
20
-29.026248538901029
30
0
11
-51.706536388743665
21
-28.801538410412064
31
0
0
LINE
5
470
100
AcDbEntity
8
0
100
AcDbLine
10
-51.859974748264321
20
-34.079171976597351
30
0
11
-51.964857914144304
21
-33.815730438929563
31
0
0
LINE
5
471
100
AcDbEntity
8
0
100
AcDbLine
10
-51.202210355886422
20
-27.948356417929006
30
0
11
-51.057024022969024
21
-27.747618716127889
31
0
0
LINE
5
472
100
AcDbEntity
8
0
100
AcDbLine
10
-49.031154190984914
20
-25.95150870213601
30
0
11
-48.813580745526544
21
-25.831625409795222
31
0
0
LINE
5
473
100
AcDbEntity
8
0
100
AcDbLine
10
-41.313051821773342
20
-26.010866034663351
30
0
11
-41.163861739479501
21
-25.973547728119613
31
0
0
LINE
5
474
100
AcDbEntity
8
0
100
AcDbLine
10
-29.76309903930342
20
-19.319499621653549
30
0
11
-29.592242303080685
21
-19.098182887124082
31
0
0
LINE
5
475
100
AcDbEntity
8
0
100
AcDbLine
10
-49.204076972783412
20
-37.200967673184024
30
0
11
-49.423177896164972
21
-37.062614870205906
31
0
0
LINE
5
476
100
AcDbEntity
8
0
100
AcDbLine
10
-45.902378996338307
20
-25.09988568310078
30
0
11
-45.641262373187473
21
-25.104747561097938
31
0
0
LINE
5
477
100
AcDbEntity
8
0
100
AcDbLine
10
-52.337525397222187
20
-32.238139032760103
30
0
11
-52.358867871215757
21
-31.977850678147064
31
0
0
LINE
5
478
100
AcDbEntity
8
0
100
AcDbLine
10
-42.07436685129538
20
-26.058217362043123
30
0
11
-41.921515571509467
21
-26.067358615841414
31
0
0
LINE
5
479
100
AcDbEntity
8
0
100
AcDbLine
10
-42.675570263114473
20
-25.9281793234166
30
0
11
-42.527675871373603
21
-25.974737481725896
31
0
0
LINE
5
480
100
AcDbEntity
8
0
100
AcDbLine
10
-49.243875802099851
20
-26.079387344478207
30
0
11
-49.031154190984914
21
-25.95150870213601
31
0
0
LINE
5
481
100
AcDbEntity
8
0
100
AcDbLine
10
-47.57405352133901
20
-37.887761702545433
30
0
11
-47.815096497039619
21
-37.819326932427444
31
0
0
LINE
5
482
100
AcDbEntity
8
0
100
AcDbLine
10
-44.580470947208539
20
-25.238443551646412
30
0
11
-44.312264971038466
21
-25.301572834875046
31
0
0
LINE
5
483
100
AcDbEntity
8
0
100
AcDbLine
10
-41.768520326106724
20
-26.067180262433922
30
0
11
-41.615819217644571
21
-26.057696149389358
31
0
0
LINE
5
484
100
AcDbEntity
8
0
100
AcDbLine
10
-43.233847269668374
20
-25.679770105864392
30
0
11
-42.96391750882195
21
-25.806882624081879
31
0
0
LINE
5
485
100
AcDbEntity
8
0
100
AcDbLine
10
-47.660447798769482
20
-25.360141359776591
30
0
11
-47.418270424660918
21
-25.293031464441853
31
0
0
LINE
5
486
100
AcDbEntity
8
0
100
AcDbLine
10
-50.406298074499304
20
-27.001758089910481
30
0
11
-50.227194546850299
21
-26.830708644554448
31
0
0
LINE
5
487
100
AcDbEntity
8
0
100
AcDbLine
10
-50.227194546850299
20
-26.830708644554448
30
0
11
-50.04195144845589
21
-26.666282750058201
31
0
0
LINE
5
488
100
AcDbEntity
8
0
100
AcDbLine
10
-50.904625005637939
20
-27.552361399235039
30
0
11
-50.745227926626917
21
-27.362813100441201
31
0
0
LINE
5
489
100
AcDbEntity
8
0
100
AcDbLine
10
-50.81782347956819
20
-35.802452357646573
30
0
11
-50.993528960660335
21
-35.579900102731301
31
0
0
LINE
5
490
100
AcDbEntity
8
0
100
AcDbLine
10
-51.339969381656054
20
-28.154345871448214
30
0
11
-51.202210355886422
21
-27.948356417929006
31
0
0
LINE
5
491
100
AcDbEntity
8
0
100
AcDbLine
10
-49.451530956138342
20
-26.21503270363192
30
0
11
-49.243875802099851
21
-26.079387344478207
31
0
0
LINE
5
492
100
AcDbEntity
8
0
100
AcDbLine
10
-48.364736842515924
20
-25.616759407879854
30
0
11
-48.133895630430899
21
-25.522233964686052
31
0
0
LINE
5
493
100
AcDbEntity
8
0
100
AcDbLine
10
-42.821130176449799
20
-25.872232320058473
30
0
11
-42.675570263114473
21
-25.9281793234166
31
0
0
LINE
5
494
100
AcDbEntity
8
0
100
AcDbLine
10
-46.418212403491729
20
-25.122836038342413
30
0
11
-46.161433880684285
21
-25.105991386579021
31
0
0
LINE
5
495
100
AcDbEntity
8
0
100
AcDbLine
10
-46.672499942026597
20
-25.15019100520071
30
0
11
-46.418212403491729
21
-25.122836038342413
31
0
0
LINE
5
496
100
AcDbEntity
8
0
100
AcDbLine
10
-51.057024022969024
20
-27.747618716127889
30
0
11
-50.904625005637939
21
-27.552361399235039
31
0
0
LINE
5
497
100
AcDbEntity
8
0
100
AcDbLine
10
-50.993528960660335
20
-35.579900102731301
30
0
11
-51.162436100635958
21
-35.346500931673788
31
0
0
LINE
5
498
100
AcDbEntity
8
0
100
AcDbLine
10
-51.162436100635958
20
-35.346500931673788
30
0
11
-51.32423958597748
21
-35.102183292329698
31
0
0
LINE
5
499
100
AcDbEntity
8
0
100
AcDbLine
10
-51.472979739156145
20
-34.856225721336429
30
0
11
-51.611615167300258
21
-34.604434184624253
31
0
0
LINE
5
500
100
AcDbEntity
8
0
100
AcDbLine
10
-29.092624895728356
20
-15.719880868174627
30
0
11
-28.98120686575913
21
-15.089612585433727
31
0
0
LINE
5
501
100
AcDbEntity
8
0
100
AcDbLine
10
-41.016718204357176
20
-25.926979052213497
30
0
11
-40.872059318963743
21
-25.871173854513927
31
0
0
LINE
5
502
100
AcDbEntity
8
0
100
AcDbLine
10
-49.848006930487983
20
-36.755014215145323
30
0
11
-50.053124414394219
21
-36.585623258774334
31
0
0
LINE
5
503
100
AcDbEntity
8
0
100
AcDbLine
10
-30.173014785947643
20
-19.698568374429541
30
0
11
-29.957492614190411
21
-19.520457973900918
31
0
0
LINE
5
504
100
AcDbEntity
8
0
100
AcDbLine
10
-41.615819217644571
20
-26.057696149389358
30
0
11
-41.463850348681092
21
-26.038920124276146
31
0
0
LINE
5
505
100
AcDbEntity
8
0
100
AcDbLine
10
-45.378298633965301
20
-25.120805653760669
30
0
11
-45.113702401405639
21
-25.14828859427972
31
0
0
LINE
5
506
100
AcDbEntity
8
0
100
AcDbLine
10
-44.043284992465757
20
-25.377041498720985
30
0
11
-43.773745634224099
21
-25.465078176374334
31
0
0
LINE
5
507
100
AcDbEntity
8
0
100
AcDbLine
10
-43.773745634224099
20
-25.465078176374334
30
0
11
-43.503861519047
21
-25.56591150102534
31
0
0
LINE
5
508
100
AcDbEntity
8
0
100
AcDbLine
10
-29.957492614190411
20
-19.520457973900918
30
0
11
-29.76309903930342
21
-19.319499621653549
31
0
0
LINE
5
509
100
AcDbEntity
8
0
100
AcDbLine
10
-41.463850348681092
20
-26.038920124276146
30
0
11
-41.313051821773342
21
-26.010866034663351
31
0
0
LINE
5
510
100
AcDbEntity
8
0
100
AcDbLine
10
-47.418270424660918
20
-25.293031464441853
30
0
11
-47.172743575345002
21
-25.235517351440606
31
0
0
LINE
5
511
100
AcDbEntity
8
0
100
AcDbLine
10
-21.546788200337961
20
-10.393928486945043
30
0
11
-22.390338384905803
21
-14.977920237308382
31
0
0
LINE
5
512
100
AcDbEntity
8
0
100
AcDbLine
10
-44.847688298242126
20
-25.187425015844767
30
0
11
-44.580470947208539
21
-25.238443551646412
31
0
0
LINE
5
513
100
AcDbEntity
8
0
100
AcDbLine
10
-50.579047408669382
20
-27.179202452936266
30
0
11
-50.406298074499304
21
-27.001758089910481
31
0
0
LINE
5
514
100
AcDbEntity
8
0
100
AcDbLine
10
-41.163861739479501
20
-25.973547728119613
30
0
11
-41.016718204357176
21
-25.926979052213497
31
0
0
ARC
5
515
100
AcDbEntity
8
0
100
AcDbCircle
10
-21.983300995987662
20
-8.4714801482687108
30
0
40
0.10000000000010348
100
AcDbArc
50
13.69247656690218
51
140.61787006963417
0
LINE
5
516
100
AcDbEntity
8
0
100
AcDbLine
10
-46.924081873555785
20
-25.187827653963595
30
0
11
-46.672499942026597
21
-25.15019100520071
31
0
0
LINE
5
517
100
AcDbEntity
8
0
100
AcDbLine
10
-50.04195144845589
20
-26.666282750058201
30
0
11
-49.850783402050062
21
-26.508709039612128
31
0
0
LINE
5
518
100
AcDbEntity
8
0
100
AcDbLine
10
-46.161433880684285
20
-25.105991386579021
30
0
11
-45.902378996338307
21
-25.09988568310078
31
0
0
LINE
5
519
100
AcDbEntity
8
0
100
AcDbLine
10
-28.378326357539827
20
-13.324030784320868
30
0
11
-28.134690353185128
21
-12.786195777700229
31
0
0
LINE
5
520
100
AcDbEntity
8
0
100
AcDbLine
10
-24.510685107325394
20
-11.4006718452314
30
0
11
-25.096545382669937
21
-12.472761576777103
31
0
0
LINE
5
521
100
AcDbEntity
8
0
100
AcDbLine
10
-22.390338384905803
20
-14.977920237308382
30
0
11
-22.423371488182163
21
-15.349427476166539
31
0
0
LINE
5
522
100
AcDbEntity
8
0
100
AcDbLine
10
-21.928370161468074
20
-16.678922282033852
30
0
11
-21.673007542310067
21
-16.96545653573871
31
0
0
LINE
5
523
100
AcDbEntity
8
0
100
AcDbLine
10
-26.143803176660345
20
-10.302528633198875
30
0
11
-25.644403373533173
21
-9.9022138542211025
31
0
0
LINE
5
524
100
AcDbEntity
8
0
100
AcDbLine
10
-45.113702401405639
20
-25.14828859427972
30
0
11
-44.847688298242126
21
-25.187425015844767
31
0
0
LINE
5
525
100
AcDbEntity
8
0
100
AcDbLine
10
-47.899061074937421
20
-25.436618404254574
30
0
11
-47.660447798769482
21
-25.360141359776591
31
0
0
LINE
5
526
100
AcDbEntity
8
0
100
AcDbLine
10
-40.591947907595554
20
-25.731909284008694
30
0
11
-30.406995561485459
21
-19.851624305298614
31
0
0
LINE
5
527
100
AcDbEntity
8
0
100
AcDbLine
10
-29.153532617297788
20
-17.78903891116336
30
0
11
-29.147667266907192
21
-17.635791509450769
31
0
0
LINE
5
528
100
AcDbEntity
8
0
100
AcDbLine
10
-43.503861519047
20
-25.56591150102534
30
0
11
-43.233847269668374
21
-25.679770105864392
31
0
0
LINE
5
529
100
AcDbEntity
8
0
100
AcDbLine
10
-47.172743575345002
20
-25.235517351440606
30
0
11
-46.924081873555785
21
-25.187827653963595
31
0
0
LINE
5
530
100
AcDbEntity
8
0
100
AcDbLine
10
-40.730323185857394
20
-25.806145982589186
30
0
11
-40.591947907595554
21
-25.731909284008694
31
0
0
LINE
5
531
100
AcDbEntity
8
0
100
AcDbLine
10
-41.921515571509467
20
-26.067358615841414
30
0
11
-41.768520326106724
21
-26.067180262433922
31
0
0
LINE
5
532
100
AcDbEntity
8
0
100
AcDbLine
10
-28.824039341095713
20
-14.46916882906045
30
0
11
-28.621962361894589
21
-13.861865790941721
31
0
0
LINE
5
533
100
AcDbEntity
8
0
100
AcDbLine
10
-29.240448362114073
20
-18.340554724156348
30
0
11
-29.181620249881526
21
-18.067219079743495
31
0
0
LINE
5
534
100
AcDbEntity
8
0
100
AcDbLine
10
-25.557908870446788
20
-15.379156721207892
30
0
11
-25.371076995503799
21
-15.367870005860667
31
0
0
LINE
5
535
100
AcDbEntity
8
0
100
AcDbLine
10
-42.96391750882195
20
-25.806882624081879
30
0
11
-42.821130176449799
21
-25.872232320058473
31
0
0
LINE
5
536
100
AcDbEntity
8
0
100
AcDbLine
10
-25.989186621491498
20
-14.922662382632481
30
0
11
-25.944653908747036
21
-15.095470235481372
31
0
0
LINE
5
537
100
AcDbEntity
8
0
100
AcDbLine
10
-21.132582310492623
20
-18.488776896599859
30
0
11
-20.956824593901501
21
-18.721865057049669
31
0
0
LINE
5
538
100
AcDbEntity
8
0
100
AcDbLine
10
-24.564685313553277
20
-9.2161907380683061
30
0
11
-24.225319010998241
21
-9.0433151759270203
31
0
0
LINE
5
539
100
AcDbEntity
8
0
100
AcDbLine
10
-25.208109646671957
20
-15.292182666696519
30
0
11
-25.083347318892379
21
-15.164589257471661
31
0
0
LINE
5
540
100
AcDbEntity
8
0
100
AcDbLine
10
-29.176078119663707
20
-16.996381696359819
30
0
11
-29.157697915997787
21
-16.356604974569606
31
0
0
LINE
5
541
100
AcDbEntity
8
0
100
AcDbLine
10
-30.406995561485459
20
-19.851624305298614
30
0
11
-30.173014785947643
21
-19.698568374429541
31
0
0
LINE
5
542
100
AcDbEntity
8
0
100
AcDbLine
10
-28.134690353185128
20
-12.786195777700229
30
0
11
-27.811426168649398
21
-12.233789810473397
31
0
0
LINE
5
543
100
AcDbEntity
8
0
100
AcDbLine
10
-27.048352458054783
20
-11.207077914593171
30
0
11
-26.612621462599453
21
-10.738259628654063
31
0
0
LINE
5
544
100
AcDbEntity
8
0
100
AcDbLine
10
-21.525753816047704
20
-10.016653376586788
30
0
11
-21.522156510329449
21
-10.142853924287394
31
0
0
LINE
5
545
100
AcDbEntity
8
0
100
AcDbLine
10
-25.969883859230993
20
-14.745742763428922
30
0
11
-25.989186621491498
21
-14.922662382632481
31
0
0
LINE
5
546
100
AcDbEntity
8
0
100
AcDbLine
10
-29.181620249881526
20
-18.067219079743495
30
0
11
-29.153532617297788
21
-17.78903891116336
31
0
0
LINE
5
547
100
AcDbEntity
8
0
100
AcDbLine
10
-28.621962361894589
20
-13.861865790941721
30
0
11
-28.378326357539827
21
-13.324030784320868
31
0
0
LINE
5
548
100
AcDbEntity
8
0
100
AcDbLine
10
-42.377885103785154
20
-26.011920642553932
30
0
11
-42.226636062906486
21
-26.039742653470057
31
0
0
LINE
5
549
100
AcDbEntity
8
0
100
AcDbLine
10
-42.527675871373603
20
-25.974737481725896
30
0
11
-42.377885103785154
21
-26.011920642553932
31
0
0
LINE
5
550
100
AcDbEntity
8
0
100
AcDbLine
10
-20.386450516100982
20
6.9045842572449345
30
0
11
-20.674291538103525
21
6.8559179286825866
31
0
0
LINE
5
551
100
AcDbEntity
8
0
100
AcDbLine
10
-24.73714661942499
20
-13.96890885652418
30
0
11
-24.400227010575854
21
-12.931074578492741
31
0
0
LINE
5
552
100
AcDbEntity
8
0
100
AcDbLine
10
-25.841123905689976
20
-15.242332308740743
30
0
11
-25.684797920204847
21
-15.345267850222584
31
0
0
LINE
5
553
100
AcDbEntity
8
0
100
AcDbLine
10
-22.282214756271451
20
-16.078591514197669
30
0
11
-22.112925864942319
21
-16.41093183030236
31
0
0
LINE
5
554
100
AcDbEntity
8
0
100
AcDbLine
10
-27.811426168649398
20
-12.233789810473397
30
0
11
-27.448667237032449
21
-11.70647771772046
31
0
0
LINE
5
555
100
AcDbEntity
8
0
100
AcDbLine
10
-22.112925864942319
20
-16.41093183030236
30
0
11
-21.928370161468074
21
-16.678922282033852
31
0
0
LINE
5
556
100
AcDbEntity
8
0
100
AcDbLine
10
-25.644403373533173
20
-9.9022138542211025
30
0
11
-25.117091280780237
21
-9.5394549226040937
31
0
0
LINE
5
557
100
AcDbEntity
8
0
100
AcDbLine
10
-23.831920188764784
20
-10.3848535346836
30
0
11
-24.510685107325394
21
-11.4006718452314
31
0
0
LINE
5
558
100
AcDbEntity
8
0
100
AcDbLine
10
-23.639048394713072
20
-8.7865295647414143
30
0
11
-23.035583852622715
21
-8.5732629896033785
31
0
0
LINE
5
559
100
AcDbEntity
8
0
100
AcDbLine
10
-24.008951767853766
20
-11.912488059871507
30
0
11
-23.564413599447835
21
-10.915993891140729
31
0
0
LINE
5
560
100
AcDbEntity
8
0
100
AcDbLine
10
-23.035583852622715
20
-8.5732629896033785
30
0
11
-22.418150824902668
21
-8.404655332861708
31
0
0
LINE
5
561
100
AcDbEntity
8
0
100
AcDbLine
10
-25.371076995503799
20
-15.367870005860667
30
0
11
-25.208109646671957
21
-15.292182666696519
31
0
0
LINE
5
562
100
AcDbEntity
8
0
100
AcDbLine
10
-22.418150824902668
20
-8.404655332861708
30
0
11
-22.308237084837099
21
-8.3834664117455304
31
0
0
LINE
5
563
100
AcDbEntity
8
0
100
AcDbLine
10
-16.922248231435823
20
-0.17379797990884072
30
0
11
-17.384109915770615
21
-1.1623821169592219
31
0
0
LINE
5
564
100
AcDbEntity
8
0
100
AcDbLine
10
-15.500025731938125
20
3.2572853315821249
30
0
11
-15.664289186258653
21
3.1844536923739497
31
0
0
LINE
5
565
100
AcDbEntity
8
0
100
AcDbLine
10
-24.400227010575854
20
-12.931074578492741
30
0
11
-24.008951767853766
21
-11.912488059871507
31
0
0
LINE
5
566
100
AcDbEntity
8
0
100
AcDbLine
10
-23.065615660732128
20
-9.4333357865414058
30
0
11
-23.831920188764784
21
-10.3848535346836
31
0
0
LINE
5
567
100
AcDbEntity
8
0
100
AcDbLine
10
-21.360144738542878
20
-17.556104173565359
30
0
11
-21.264633459838869
21
-17.877121516250227
31
0
0
LINE
5
568
100
AcDbEntity
8
0
100
AcDbLine
10
-25.117091280780237
20
-9.5394549226040937
30
0
11
-24.564685313553277
21
-9.2161907380683061
31
0
0
LINE
5
569
100
AcDbEntity
8
0
100
AcDbLine
10
-23.067853960079159
20
-9.9443749658237124
30
0
11
-22.519787841083463
21
-8.9995168858272478
31
0
0
LINE
5
570
100
AcDbEntity
8
0
100
AcDbLine
10
-21.673007542310067
20
-16.96545653573871
30
0
11
-21.49706296915366
21
-17.25044433519848
31
0
0
LINE
5
571
100
AcDbEntity
8
0
100
AcDbLine
10
-21.564647488748456
20
-9.7673895838084235
30
0
11
-21.539951000897865
21
-9.8912023551053352
31
0
0
LINE
5
572
100
AcDbEntity
8
0
100
AcDbLine
10
-21.539951000897865
20
-9.8912023551053352
30
0
11
-21.525753816047704
21
-10.016653376586788
31
0
0
LINE
5
573
100
AcDbEntity
8
0
100
AcDbLine
10
-23.564413599447835
20
-10.915993891140729
30
0
11
-23.067853960079159
21
-9.9443749658237124
31
0
0
LINE
5
574
100
AcDbEntity
8
0
100
AcDbLine
10
-20.708690132129497
20
-18.875651123922736
30
0
11
-20.421742294254599
21
-18.92933355887287
31
0
0
LINE
5
575
100
AcDbEntity
8
0
100
AcDbLine
10
-25.684797920204847
20
-15.345267850222584
30
0
11
-25.557908870446788
21
-15.379156721207892
31
0
0
LINE
5
576
100
AcDbEntity
8
0
100
AcDbLine
10
-18.919327207863638
20
4.6282214470552674
30
0
11
-19.169650221804019
21
4.9191687524239569
31
0
0
LINE
5
577
100
AcDbEntity
8
0
100
AcDbLine
10
-19.60871389654389
20
6.1694801692537737
30
0
11
-19.683407538169114
21
6.4516888250103221
31
0
0
LINE
5
578
100
AcDbEntity
8
0
100
AcDbLine
10
-22.295293498447045
20
-8.7020269693848462
30
0
11
-22.060594146287251
21
-8.408031200942645
31
0
0
LINE
5
579
100
AcDbEntity
8
0
100
AcDbLine
10
-25.944653908747036
20
-15.095470235481372
30
0
11
-25.841123905689976
21
-15.242332308740743
31
0
0
LINE
5
580
100
AcDbEntity
8
0
100
AcDbLine
10
-21.49706296915366
20
-17.25044433519848
30
0
11
-21.360144738542878
21
-17.556104173565359
31
0
0
LINE
5
581
100
AcDbEntity
8
0
100
AcDbLine
10
-21.522156510329449
20
-10.142853924287394
30
0
11
-21.529184567886361
21
-10.268909964425745
31
0
0
LINE
5
582
100
AcDbEntity
8
0
100
AcDbLine
10
-20.956824593901501
20
-18.721865057049669
30
0
11
-20.708690132129497
21
-18.875651123922736
31
0
0
LINE
5
583
100
AcDbEntity
8
0
100
AcDbLine
10
-22.519787841083463
20
-8.9995168858272478
30
0
11
-22.295293498447045
21
-8.7020269693848462
31
0
0
LINE
5
584
100
AcDbEntity
8
0
100
AcDbLine
10
-14.912167686887283
20
2.6248022213793831
30
0
11
-14.889780191429933
21
2.8013580152157402
31
0
0
LINE
5
585
100
AcDbEntity
8
0
100
AcDbLine
10
-25.096545382669937
20
-12.472761576777103
30
0
11
-25.584870309733432
21
-13.592648812315389
31
0
0
LINE
5
586
100
AcDbEntity
8
0
100
AcDbLine
10
-14.339468200027587
20
-1.39328787218993
30
0
11
-14.81581963710104
21
-1.8207704964325444
31
0
0
LINE
5
587
100
AcDbEntity
8
0
100
AcDbLine
10
-27.448667237032449
20
-11.70647771772046
30
0
11
-27.048352458054783
21
-11.207077914593171
31
0
0
LINE
5
588
100
AcDbEntity
8
0
100
AcDbLine
10
-19.439549112176884
20
-1.8997620300820017
30
0
11
-19.430322143780767
21
-1.7738478454061379
31
0
0
LINE
5
589
100
AcDbEntity
8
0
100
AcDbLine
10
-19.34059427484388
20
5.2071838030625628
30
0
11
-19.472157152414276
21
5.5151866405649486
31
0
0
LINE
5
590
100
AcDbEntity
8
0
100
AcDbLine
10
-19.683407538169114
20
6.4516888250103221
30
0
11
-19.855070536696822
21
6.6878088801087898
31
0
0
LINE
5
591
100
AcDbEntity
8
0
100
AcDbLine
10
-22.386908279305473
20
-15.720613748588406
30
0
11
-22.282214756271451
21
-16.078591514197669
31
0
0
LINE
5
592
100
AcDbEntity
8
0
100
AcDbLine
10
-13.89562156124196
20
-0.93214554397647476
30
0
11
-14.339468200027587
21
-1.39328787218993
31
0
0
LINE
5
593
100
AcDbEntity
8
0
100
AcDbLine
10
-16.158274795918331
20
1.8696008613809312
30
0
11
-16.513255795913928
21
0.83780470848715538
31
0
0
ARC
5
594
100
AcDbEntity
8
0
100
AcDbCircle
10
-19.007644355505118
20
-3.5789293287692914
30
0
40
0.10000000000008977
100
AcDbArc
50
192.69247656693398
51
319.61787006964533
0
LINE
5
595
100
AcDbEntity
8
0
100
AcDbLine
10
-22.423371488182163
20
-15.349427476166539
30
0
11
-22.386908279305473
21
-15.720613748588406
31
0
0
LINE
5
596
100
AcDbEntity
8
0
100
AcDbLine
10
-22.217828479823751
20
-8.5536395033843604
30
0
11
-23.065615660732128
21
-9.4333357865414058
31
0
0
LINE
5
597
100
AcDbEntity
8
0
100
AcDbLine
10
-25.083347318892379
20
-15.164589257471661
30
0
11
-25.014528068488843
21
-15.007215149837023
31
0
0
LINE
5
598
100
AcDbEntity
8
0
100
AcDbLine
10
-24.225319010998241
20
-9.0433151759270203
30
0
11
-23.639048394713072
21
-8.7865295647414143
31
0
0
LINE
5
599
100
AcDbEntity
8
0
100
AcDbLine
10
-21.21218979607481
20
-18.207914806380359
30
0
11
-21.132582310492623
21
-18.488776896599859
31
0
0
LINE
5
600
100
AcDbEntity
8
0
100
AcDbLine
10
-25.014528068488843
20
-15.007215149837023
30
0
11
-24.73714661942499
21
-13.96890885652418
31
0
0
ARC
5
601
100
AcDbEntity
8
0
100
AcDbCircle
10
-22.286677144373481
20
-8.4811146015249506
30
0
40
0.099999999999962008
100
AcDbArc
50
-46.489567185554833
51
102.45069542336455
0
LINE
5
602
100
AcDbEntity
8
0
100
AcDbLine
10
-16.413656203382956
20
-2.8793835302803927
30
0
11
-16.755987913379879
21
-3.0463100039931135
31
0
0
LINE
5
603
100
AcDbEntity
8
0
100
AcDbLine
10
-21.264633459838869
20
-17.877121516250227
30
0
11
-21.21218979607481
21
-18.207914806380359
31
0
0
LINE
5
604
100
AcDbEntity
8
0
100
AcDbLine
10
-21.529184567886361
20
-10.268909964425745
30
0
11
-21.546788200337961
21
-10.393928486945043
31
0
0
LINE
5
605
100
AcDbEntity
8
0
100
AcDbLine
10
-15.855692632325269
20
-2.5658093939041038
30
0
11
-16.413656203382956
21
-2.8793835302803927
31
0
0
LINE
5
606
100
AcDbEntity
8
0
100
AcDbLine
10
-17.384109915770615
20
-1.1623821169592219
30
0
11
-17.897551015087814
21
-2.1251868993611112
31
0
0
LINE
5
607
100
AcDbEntity
8
0
100
AcDbLine
10
-17.346650764664176
20
-3.2928246724087984
30
0
11
-17.953745411130619
21
-3.4955268575553333
31
0
0
LINE
5
608
100
AcDbEntity
8
0
100
AcDbLine
10
-25.584870309733432
20
-13.592648812315389
30
0
11
-25.969883859230993
21
-14.745742763428922
31
0
0
LINE
5
609
100
AcDbEntity
8
0
100
AcDbLine
10
-21.886142974934977
20
-8.4478090911493808
30
0
11
-21.564647488748456
21
-9.7673895838084235
31
0
0
LINE
5
610
100
AcDbEntity
8
0
100
AcDbLine
10
-26.612621462599453
20
-10.738259628654063
30
0
11
-26.143803176660345
21
-10.302528633198875
31
0
0
LINE
5
611
100
AcDbEntity
8
0
100
AcDbLine
10
-14.81581963710104
20
-1.8207704964325444
30
0
11
-15.322129835444853
21
-2.212308577191564
31
0
0
LINE
5
612
100
AcDbEntity
8
0
100
AcDbLine
10
-19.169650221804019
20
4.9191687524239569
30
0
11
-19.34059427484388
21
5.2071838030625628
31
0
0
LINE
5
613
100
AcDbEntity
8
0
100
AcDbLine
10
-18.691675774190031
20
-3.3538626410089023
30
0
11
-18.931470314143446
21
-3.6437175639871811
31
0
0
LINE
5
614
100
AcDbEntity
8
0
100
AcDbLine
10
-29.026099032663957
20
2.0524716586933778
30
0
11
-29.252029121667125
21
2.2171796311126002
31
0
0
LINE
5
615
100
AcDbEntity
8
0
100
AcDbLine
10
-25.711780540246252
20
3.4125670392385388
30
0
11
-25.869872346020635
21
3.3123646421362452
31
0
0
LINE
5
616
100
AcDbEntity
8
0
100
AcDbLine
10
-29.252029121667125
20
2.2171796311126002
30
0
11
-29.494863919042984
21
2.3557595087240912
31
0
0
LINE
5
617
100
AcDbEntity
8
0
100
AcDbLine
10
-26.023469866764842
20
2.9953169626150355
30
0
11
-26.006760799173449
21
2.8184590645063423
31
0
0
LINE
5
618
100
AcDbEntity
8
0
100
AcDbLine
10
-19.426149257261464
20
-2.151685828192953
30
0
11
-19.438154857596778
21
-2.0260061384696115
31
0
0
LINE
5
619
100
AcDbEntity
8
0
100
AcDbLine
10
-21.104871041890114
20
6.4765005627609185
30
0
11
-21.189368122218191
21
6.1970705913920199
31
0
0
LINE
5
620
100
AcDbEntity
8
0
100
AcDbLine
10
-18.576013721863038
20
4.0218066728187551
30
0
11
-18.739476691401904
21
4.3570508704203093
31
0
0
LINE
5
621
100
AcDbEntity
8
0
100
AcDbLine
10
-18.477583717620554
20
3.6620562750416497
30
0
11
-18.576013721863038
21
4.0218066728187551
31
0
0
ARC
5
622
100
AcDbEntity
8
0
100
AcDbCircle
10
-18.70414626838209
20
-3.5745909867318915
30
0
40
0.10000000000001466
100
AcDbArc
50
132.51043281443833
51
281.45069542336881
0
LINE
5
623
100
AcDbEntity
8
0
100
AcDbLine
10
-18.447604155957471
20
3.2902901653456951
30
0
11
-18.477583717620554
21
3.6620562750416497
31
0
0
LINE
5
624
100
AcDbEntity
8
0
100
AcDbLine
10
-19.438154857596778
20
-2.0260061384696115
30
0
11
-19.439549112176884
21
-1.8997620300820017
31
0
0
LINE
5
625
100
AcDbEntity
8
0
100
AcDbLine
10
-18.771718712882652
20
-3.5008755558899196
30
0
11
-17.908707836993241
21
-2.6361091811912729
31
0
0
LINE
5
626
100
AcDbEntity
8
0
100
AcDbLine
10
-19.472157152414276
20
5.5151866405649486
30
0
11
-19.562051359149926
21
5.8378219924087205
31
0
0
LINE
5
627
100
AcDbEntity
8
0
100
AcDbLine
10
-18.574027010163839
20
-3.6533331423865434
30
0
11
-18.68429380749771
21
-3.6726005770628234
31
0
0
LINE
5
628
100
AcDbEntity
8
0
100
AcDbLine
10
-17.897551015087814
20
-2.1251868993611112
30
0
11
-18.462023708196639
21
-3.0603360002323399
31
0
0
LINE
5
629
100
AcDbEntity
8
0
100
AcDbLine
10
-28.476474188311069
20
1.4234470640289487
30
0
11
-28.635904607185072
21
1.6531317671180545
31
0
0
LINE
5
630
100
AcDbEntity
8
0
100
AcDbLine
10
-23.188968315490179
20
-2.0328248668202065
30
0
11
-23.668495238034044
21
-1.0526877631254195
31
0
0
LINE
5
631
100
AcDbEntity
8
0
100
AcDbLine
10
-28.635904607185072
20
1.6531317671180545
30
0
11
-28.819872583445026
21
1.8636760736338687
31
0
0
LINE
5
632
100
AcDbEntity
8
0
100
AcDbLine
10
-24.606163827531489
20
-0.55156891287907683
30
0
11
-23.945230762177701
21
-1.5790785906120419
31
0
0
LINE
5
633
100
AcDbEntity
8
0
100
AcDbLine
10
-16.755987913379879
20
-3.0463100039931135
30
0
11
-17.346650764664176
21
-3.2928246724087984
31
0
0
LINE
5
634
100
AcDbEntity
8
0
100
AcDbLine
10
-16.513255795913928
20
0.83780470848715538
30
0
11
-16.922248231435823
21
-0.17379797990884072
31
0
0
LINE
5
635
100
AcDbEntity
8
0
100
AcDbLine
10
-22.121328681878822
20
4.4160813164916135
30
0
11
-22.296391927962027
21
4.0867461159636065
31
0
0
LINE
5
636
100
AcDbEntity
8
0
100
AcDbLine
10
-20.925072144738699
20
6.7064858276506101
30
0
11
-21.104871041890114
21
6.4765005627609185
31
0
0
LINE
5
637
100
AcDbEntity
8
0
100
AcDbLine
10
-21.660288430665844
20
-1.6098860727345965
30
0
11
-21.644869353399912
21
-1.7351927800757494
31
0
0
LINE
5
638
100
AcDbEntity
8
0
100
AcDbLine
10
-15.322129835444853
20
-2.212308577191564
30
0
11
-15.855692632325269
21
-2.5658093939041038
31
0
0
LINE
5
639
100
AcDbEntity
8
0
100
AcDbLine
10
-15.825042141261978
20
0.3674090788221207
30
0
11
-15.317246861251608
21
1.4786033050094716
31
0
0
LINE
5
640
100
AcDbEntity
8
0
100
AcDbLine
10
-18.487115923459108
20
2.9194160159836002
30
0
11
-18.447604155957471
21
3.2902901653456951
31
0
0
LINE
5
641
100
AcDbEntity
8
0
100
AcDbLine
10
-19.562051359149926
20
5.8378219924087205
30
0
11
-19.60871389654389
21
6.1694801692537737
31
0
0
LINE
5
642
100
AcDbEntity
8
0
100
AcDbLine
10
-17.953745411130619
20
-3.4955268575553333
30
0
11
-18.574027010163839
21
-3.6533331423865434
31
0
0
LINE
5
643
100
AcDbEntity
8
0
100
AcDbLine
10
-15.317246861251608
20
1.4786033050094716
30
0
11
-14.912167686887283
21
2.6248022213793831
31
0
0
LINE
5
644
100
AcDbEntity
8
0
100
AcDbLine
10
-25.975939771619068
20
3.167324539674965
30
0
11
-26.023469866764842
21
2.9953169626150355
31
0
0
LINE
5
645
100
AcDbEntity
8
0
100
AcDbLine
10
-15.313025332051051
20
3.2653096620909139
30
0
11
-15.500025731938125
21
3.2572853315821249
31
0
0
LINE
5
646
100
AcDbEntity
8
0
100
AcDbLine
10
-12.781889713875572
20
0.62777260135739255
30
0
11
-13.114745477168652
21
0.081092506170108436
31
0
0
LINE
5
647
100
AcDbEntity
8
0
100
AcDbLine
10
-14.889780191429933
20
2.8013580152157402
30
0
11
-14.931290208743073
21
2.9749167515941366
31
0
0
LINE
5
648
100
AcDbEntity
8
0
100
AcDbLine
10
-17.908707836993241
20
-2.6361091811912729
30
0
11
-17.125913746379034
21
-1.6981102118889169
31
0
0
LINE
5
649
100
AcDbEntity
8
0
100
AcDbLine
10
-18.739476691401904
20
4.3570508704203093
30
0
11
-18.919327207863638
21
4.6282214470552674
31
0
0
LINE
5
650
100
AcDbEntity
8
0
100
AcDbLine
10
-19.410539318380504
20
-1.6491555895617438
30
0
11
-18.487115923459108
21
2.9194160159836002
31
0
0
LINE
5
651
100
AcDbEntity
8
0
100
AcDbLine
10
-15.862814649955421
20
2.902908041828951
30
0
11
-16.158274795918331
21
1.8696008613809312
31
0
0
LINE
5
652
100
AcDbEntity
8
0
100
AcDbLine
10
-13.114745477168652
20
0.081092506170108436
30
0
11
-13.486652023805261
21
-0.43980825808361601
31
0
0
LINE
5
653
100
AcDbEntity
8
0
100
AcDbLine
10
-15.032241347086446
20
3.1235633047402445
30
0
11
-15.186747050460028
21
3.229211433275907
31
0
0
LINE
5
654
100
AcDbEntity
8
0
100
AcDbLine
10
-14.931290208743073
20
2.9749167515941366
30
0
11
-15.032241347086446
21
3.1235633047402445
31
0
0
LINE
5
655
100
AcDbEntity
8
0
100
AcDbLine
10
-19.430322143780767
20
-1.7738478454061379
30
0
11
-19.410539318380504
21
-1.6491555895617438
31
0
0
LINE
5
656
100
AcDbEntity
8
0
100
AcDbLine
10
-15.664289186258653
20
3.1844536923739497
30
0
11
-15.791259324167921
21
3.0590571190959537
31
0
0
LINE
5
657
100
AcDbEntity
8
0
100
AcDbLine
10
-19.855070536696822
20
6.6878088801087898
30
0
11
-20.100483269445
21
6.8459020680968763
31
0
0
LINE
5
658
100
AcDbEntity
8
0
100
AcDbLine
10
-17.125913746379034
20
-1.6981102118889169
30
0
11
-16.429523732981135
21
-0.69429269662407478
31
0
0
LINE
5
659
100
AcDbEntity
8
0
100
AcDbLine
10
-26.719340734950663
20
-1.1771963932897478
30
0
11
-27.146823359193419
21
-0.70084495621635767
31
0
0
LINE
5
660
100
AcDbEntity
8
0
100
AcDbLine
10
-19.403617361612397
20
-2.2759107553486047
30
0
11
-19.426149257261464
21
-2.151685828192953
31
0
0
LINE
5
661
100
AcDbEntity
8
0
100
AcDbLine
10
-22.450252828169958
20
3.36015665780387
30
0
11
-22.423708451322266
21
2.9881294941534264
31
0
0
LINE
5
662
100
AcDbEntity
8
0
100
AcDbLine
10
-21.671799570399173
20
4.9628439317636719
30
0
11
-21.932124008847332
21
4.6808100108319195
31
0
0
LINE
5
663
100
AcDbEntity
8
0
100
AcDbLine
10
-20.100483269445
20
6.8459020680968763
30
0
11
-20.386450516100982
21
6.9045842572449345
31
0
0
LINE
5
664
100
AcDbEntity
8
0
100
AcDbLine
10
-19.10520069583022
20
-3.6009011393999657
30
0
11
-19.403617361612397
21
-2.2759107553486047
31
0
0
LINE
5
665
100
AcDbEntity
8
0
100
AcDbLine
10
-18.462023708196639
20
-3.0603360002323399
30
0
11
-18.691675774190031
21
-3.3538626410089023
31
0
0
LINE
5
666
100
AcDbEntity
8
0
100
AcDbLine
10
-22.407317079126532
20
3.7306500260172726
30
0
11
-22.450252828169958
21
3.36015665780387
31
0
0
LINE
5
667
100
AcDbEntity
8
0
100
AcDbLine
10
-13.486652023805261
20
-0.43980825808361601
30
0
11
-13.89562156124196
21
-0.93214554397647476
31
0
0
LINE
5
668
100
AcDbEntity
8
0
100
AcDbLine
10
-20.674291538103525
20
6.8559179286825866
30
0
11
-20.925072144738699
21
6.7064858276506101
31
0
0
LINE
5
669
100
AcDbEntity
8
0
100
AcDbLine
10
-25.113561765087489
20
3.2214600620109479
30
0
11
-25.236087140602493
21
3.3512030728650899
31
0
0
LINE
5
670
100
AcDbEntity
8
0
100
AcDbLine
10
-15.186747050460028
20
3.229211433275907
30
0
11
-15.313025332051051
21
3.2653096620909139
31
0
0
LINE
5
671
100
AcDbEntity
8
0
100
AcDbLine
10
-15.791259324167921
20
3.0590571190959537
30
0
11
-15.862814649955421
21
2.902908041828951
31
0
0
LINE
5
672
100
AcDbEntity
8
0
100
AcDbLine
10
-21.932124008847332
20
4.6808100108319195
30
0
11
-22.121328681878822
21
4.4160813164916135
31
0
0
LINE
5
673
100
AcDbEntity
8
0
100
AcDbLine
10
-16.429523732981135
20
-0.69429269662407478
30
0
11
-15.825042141261978
21
0.3674090788221207
31
0
0
LINE
5
674
100
AcDbEntity
8
0
100
AcDbLine
10
-27.53836143995234
20
-0.19453475787251762
30
0
11
-27.891862256664915
21
0.33902803900808465
31
0
0
LINE
5
675
100
AcDbEntity
8
0
100
AcDbLine
10
-22.566235946082259
20
-3.5836488762029717
30
0
11
-23.180632326407657
21
-3.4042912070767528
31
0
0
LINE
5
676
100
AcDbEntity
8
0
100
AcDbLine
10
-21.645841608578856
20
-1.9874708228900317
30
0
11
-21.662226053343705
21
-2.1126549625329005
31
0
0
LINE
5
677
100
AcDbEntity
8
0
100
AcDbLine
10
-22.296391927962027
20
4.0867461159636065
30
0
11
-22.407317079126532
21
3.7306500260172726
31
0
0
LINE
5
678
100
AcDbEntity
8
0
100
AcDbLine
10
-21.247576937504355
20
5.8672429508171575
30
0
11
-21.348676194515956
21
5.5479414022838824
31
0
0
LINE
5
679
100
AcDbEntity
8
0
100
AcDbLine
10
-21.348676194515956
20
5.5479414022838824
30
0
11
-21.490908071547679
21
5.2447176700000142
31
0
0
LINE
5
680
100
AcDbEntity
8
0
100
AcDbLine
10
-22.210213689650431
20
-3.5846724860144263
30
0
11
-22.438207480728892
21
-3.2884666868157097
31
0
0
LINE
5
681
100
AcDbEntity
8
0
100
AcDbLine
10
-22.423708451322266
20
2.9881294941534264
30
0
11
-21.660288430665844
21
-1.6098860727345965
31
0
0
LINE
5
682
100
AcDbEntity
8
0
100
AcDbLine
10
-27.146823359193419
20
-0.70084495621635767
30
0
11
-27.53836143995234
21
-0.19453475787251762
31
0
0
LINE
5
683
100
AcDbEntity
8
0
100
AcDbLine
10
-21.644869353399912
20
-1.7351927800757494
30
0
11
-21.640042347496482
21
-1.8613522777855707
31
0
0
LINE
5
684
100
AcDbEntity
8
0
100
AcDbLine
10
-23.780282942976612
20
-3.1805252050121879
30
0
11
-24.361982740553529
21
-2.9135468704411238
31
0
0
LINE
5
685
100
AcDbEntity
8
0
100
AcDbLine
10
-23.668495238034044
20
-1.0526877631254195
30
0
11
-24.095574479878515
21
-0.048587104491062405
31
0
0
LINE
5
686
100
AcDbEntity
8
0
100
AcDbLine
10
-25.045530556248714
20
3.0573574609130816
30
0
11
-25.113561765087489
21
3.2214600620109479
31
0
0
LINE
5
687
100
AcDbEntity
8
0
100
AcDbLine
10
-23.195649220509289
20
-2.5438252760702795
30
0
11
-22.363343978769883
21
-3.4381835036760577
31
0
0
LINE
5
688
100
AcDbEntity
8
0
100
AcDbLine
10
-25.173224327786336
20
0.53058220584865978
30
0
11
-24.606163827531489
21
-0.55156891287907683
31
0
0
LINE
5
689
100
AcDbEntity
8
0
100
AcDbLine
10
-22.438207480728892
20
-3.2884666868157097
30
0
11
-22.657475716856624
21
-2.9871041130180487
31
0
0
LINE
5
690
100
AcDbEntity
8
0
100
AcDbLine
10
-24.361982740553529
20
-2.9135468704411238
30
0
11
-24.698280261403376
21
-2.7347748794419147
31
0
0
LINE
5
691
100
AcDbEntity
8
0
100
AcDbLine
10
-53.54074144220057
20
0.12128295708563996
30
0
11
-53.74230842349975
21
0.26647579437771185
31
0
0
LINE
5
692
100
AcDbEntity
8
0
100
AcDbLine
10
-43.097450199360388
20
2.7193672070353614
30
0
11
-43.242942455333029
21
2.6707952901127641
31
0
0
LINE
5
693
100
AcDbEntity
8
0
100
AcDbLine
10
-53.74230842349975
20
0.26647579437771185
30
0
11
-53.938432651139593
21
0.41938316753750371
31
0
0
LINE
5
694
100
AcDbEntity
8
0
100
AcDbLine
10
-52.233760910747691
20
-0.5824975214805761
30
0
11
-52.4617147203071
21
-0.48560613388104912
31
0
0
LINE
5
695
100
AcDbEntity
8
0
100
AcDbLine
10
-28.819872583445026
20
1.8636760736338687
30
0
11
-29.026099032663957
21
2.0524716586933778
31
0
0
LINE
5
696
100
AcDbEntity
8
0
100
AcDbLine
10
-24.787768932297524
20
2.0202292418289858
30
0
11
-25.045530556248714
21
3.0573574609130816
31
0
0
LINE
5
697
100
AcDbEntity
8
0
100
AcDbLine
10
-25.765861120844498
20
-2.0300125695120386
30
0
11
-26.258198406737179
21
-1.6210430320753488
31
0
0
LINE
5
698
100
AcDbEntity
8
0
100
AcDbLine
10
-24.469013343571486
20
0.97667297303459577
30
0
11
-24.787768932297524
21
2.0202292418289858
31
0
0
LINE
5
699
100
AcDbEntity
8
0
100
AcDbLine
10
-22.456708744074962
20
-3.6067528294085349
30
0
11
-22.566235946082259
21
-3.5836488762029717
31
0
0
ARC
5
700
100
AcDbEntity
8
0
100
AcDbCircle
10
-22.130595775855681
20
-3.5231185294011169
30
0
40
0.10063747697443728
100
AcDbArc
50
217.70821646351496
51
344.63360996634452
0
LINE
5
701
100
AcDbEntity
8
0
100
AcDbLine
10
-44.985018296653593
20
1.0490423575016194
30
0
11
-45.178081702960583
21
0.84136847036440088
31
0
0
LINE
5
702
100
AcDbEntity
8
0
100
AcDbLine
10
-21.189368122218191
20
6.1970705913920199
30
0
11
-21.247576937504355
21
5.8672429508171575
31
0
0
LINE
5
703
100
AcDbEntity
8
0
100
AcDbLine
10
-42.797601761575152
20
2.7896633875381127
30
0
11
-42.948873339252664
21
2.7590566678365747
31
0
0
LINE
5
704
100
AcDbEntity
8
0
100
AcDbLine
10
-53.334030264084582
20
-0.016099428410569772
30
0
11
-53.54074144220057
21
0.12128295708563996
31
0
0
LINE
5
705
100
AcDbEntity
8
0
100
AcDbLine
10
-21.689079610606548
20
-2.2360178634016137
30
0
11
-22.033555986557836
21
-3.5497865076673918
31
0
0
LINE
5
706
100
AcDbEntity
8
0
100
AcDbLine
10
-26.258198406737179
20
-1.6210430320753488
30
0
11
-26.719340734950663
21
-1.1771963932897478
31
0
0
LINE
5
707
100
AcDbEntity
8
0
100
AcDbLine
10
-23.180632326407657
20
-3.4042912070767528
30
0
11
-23.780282942976612
21
-3.1805252050121879
31
0
0
LINE
5
708
100
AcDbEntity
8
0
100
AcDbLine
10
-25.236087140602493
20
3.3512030728650899
30
0
11
-25.397714105017268
21
3.4297120180185203
31
0
0
LINE
5
709
100
AcDbEntity
8
0
100
AcDbLine
10
-25.641930153399599
20
1.658821322237074
30
0
11
-25.173224327786336
21
0.53058220584865978
31
0
0
LINE
5
710
100
AcDbEntity
8
0
100
AcDbLine
10
-52.002454245427536
20
-0.67100296171666685
30
0
11
-52.233760910747691
21
-0.5824975214805761
31
0
0
LINE
5
711
100
AcDbEntity
8
0
100
AcDbLine
10
-47.605950735205376
20
-0.72075972905217611
30
0
11
-47.846555584124637
21
-0.7996029650255565
31
0
0
LINE
5
712
100
AcDbEntity
8
0
100
AcDbLine
10
-46.221485340427286
20
-0.029967905872396727
30
0
11
-46.443693491208364
21
-0.17149998072532924
31
0
0
LINE
5
713
100
AcDbEntity
8
0
100
AcDbLine
10
-47.131998766958802
20
-0.5323522911973555
30
0
11
-47.367665610535887
21
-0.63170814308534773
31
0
0
LINE
5
714
100
AcDbEntity
8
0
100
AcDbLine
10
-21.640042347496482
20
-1.8613522777855707
30
0
11
-21.645841608578856
21
-1.9874708228900317
31
0
0
LINE
5
715
100
AcDbEntity
8
0
100
AcDbLine
10
-24.698280261403376
20
-2.7347748794419147
30
0
11
-25.244960356590713
21
-2.4019191161487896
31
0
0
LINE
5
716
100
AcDbEntity
8
0
100
AcDbLine
10
-43.242942455333029
20
2.6707952901127641
30
0
11
-43.38496022060496
21
2.6135412020471449
31
0
0
LINE
5
717
100
AcDbEntity
8
0
100
AcDbLine
10
-43.786267706566768
20
2.3916887607704496
30
0
11
-43.910488643385015
21
2.3017088379125994
31
0
0
LINE
5
718
100
AcDbEntity
8
0
100
AcDbLine
10
-26.006760799173449
20
2.8184590645063423
30
0
11
-25.641930153399599
21
1.658821322237074
31
0
0
LINE
5
719
100
AcDbEntity
8
0
100
AcDbLine
10
-43.65701273278723
20
2.4737876523975899
30
0
11
-43.786267706566768
21
2.3916887607704496
31
0
0
LINE
5
720
100
AcDbEntity
8
0
100
AcDbLine
10
-24.095574479878515
20
-0.048587104491062405
30
0
11
-24.469013343571486
21
0.97667297303459577
31
0
0
LINE
5
721
100
AcDbEntity
8
0
100
AcDbLine
10
-22.657475716856624
20
-2.9871041130180487
30
0
11
-23.188968315490179
21
-2.0328248668202065
31
0
0
LINE
5
722
100
AcDbEntity
8
0
100
AcDbLine
10
-27.891862256664915
20
0.33902803900808465
30
0
11
-28.205436393041239
21
0.89699161006542738
31
0
0
LINE
5
723
100
AcDbEntity
8
0
100
AcDbLine
10
-29.494863919042984
20
2.3557595087240912
30
0
11
-29.75159506966218
21
2.4664944968586866
31
0
0
LINE
5
724
100
AcDbEntity
8
0
100
AcDbLine
10
-21.490908071547679
20
5.2447176700000142
30
0
11
-21.671799570399173
21
4.9628439317636719
31
0
0
LINE
5
725
100
AcDbEntity
8
0
100
AcDbLine
10
-43.38496022060496
20
2.6135412020471449
30
0
11
-43.523113608611588
21
2.5478052278159424
31
0
0
LINE
5
726
100
AcDbEntity
8
0
100
AcDbLine
10
-48.579302907954172
20
-0.97584173226358928
30
0
11
-48.826201085446037
21
-1.0148107275420415
31
0
0
LINE
5
727
100
AcDbEntity
8
0
100
AcDbLine
10
-21.662226053343705
20
-2.1126549625329005
30
0
11
-21.689079610606548
21
-2.2360178634016137
31
0
0
LINE
5
728
100
AcDbEntity
8
0
100
AcDbLine
10
-44.616897259966997
20
1.4985640710893477
30
0
11
-44.797857296708159
21
1.2680755857672921
31
0
0
LINE
5
729
100
AcDbEntity
8
0
100
AcDbLine
10
-25.869872346020635
20
3.3123646421362452
30
0
11
-25.975939771619068
21
3.167324539674965
31
0
0
LINE
5
730
100
AcDbEntity
8
0
100
AcDbLine
10
-45.178081702960583
20
0.84136847036440088
30
0
11
-45.376748958786607
21
0.64495800842742312
31
0
0
LINE
5
731
100
AcDbEntity
8
0
100
AcDbLine
10
-46.003388254952014
20
0.1223480145413447
30
0
11
-46.221485340427286
21
-0.029967905872396727
31
0
0
LINE
5
732
100
AcDbEntity
8
0
100
AcDbLine
10
-49.322179703695816
20
-1.063658322965253
30
0
11
-49.570663030768912
21
-1.0737287549657282
31
0
0
LINE
5
733
100
AcDbEntity
8
0
100
AcDbLine
10
-25.244960356590713
20
-2.4019191161487896
30
0
11
-25.765861120844498
21
-2.0300125695120386
31
0
0
LINE
5
734
100
AcDbEntity
8
0
100
AcDbLine
10
-50.806077571908233
20
-0.98438389497417234
30
0
11
-51.049670163392179
21
-0.93924693047213736
31
0
0
LINE
5
735
100
AcDbEntity
8
0
100
AcDbLine
10
-30.572738823122911
20
2.6197340034330807
30
0
11
-42.3315175887751
21
2.8249842502640377
31
0
0
LINE
5
736
100
AcDbEntity
8
0
100
AcDbLine
10
-52.4617147203071
20
-0.48560613388104912
30
0
11
-52.686017117263297
21
-0.38042471484658336
31
0
0
LINE
5
737
100
AcDbEntity
8
0
100
AcDbLine
10
-48.826201085446037
20
-1.0148107275420415
30
0
11
-49.073926202974043
21
-1.0440509524666908
31
0
0
LINE
5
738
100
AcDbEntity
8
0
100
AcDbLine
10
-43.523113608611588
20
2.5478052278159424
30
0
11
-43.65701273278723
21
2.4737876523975899
31
0
0
LINE
5
739
100
AcDbEntity
8
0
100
AcDbLine
10
-44.029285656676727
20
2.2040481688019753
30
0
11
-44.142268859876424
21
2.0989070384170105
31
0
0
ARC
5
740
100
AcDbEntity
8
0
100
AcDbCircle
10
-22.433447891398668
20
-3.5094957847651642
30
0
40
0.099999999999978717
100
AcDbArc
50
-103.45069542344902
51
45.489567185494586
0
LINE
5
741
100
AcDbEntity
8
0
100
AcDbLine
10
-23.945230762177701
20
-1.5790785906120419
30
0
11
-23.195649220509289
21
-2.5438252760702795
31
0
0
LINE
5
742
100
AcDbEntity
8
0
100
AcDbLine
10
-29.75159506966218
20
2.4664944968586866
30
0
11
-30.019042063638139
21
2.5480127568293653
31
0
0
LINE
5
743
100
AcDbEntity
8
0
100
AcDbLine
10
-53.122473445994601
20
-0.14557544618355678
30
0
11
-53.334030264084582
21
-0.016099428410569772
31
0
0
LINE
5
744
100
AcDbEntity
8
0
100
AcDbLine
10
-50.560923465719284
20
-1.0205594165451259
30
0
11
-50.806077571908233
21
-0.98438389497417234
31
0
0
LINE
5
745
100
AcDbEntity
8
0
100
AcDbLine
10
-47.846555584124637
20
-0.7996029650255565
30
0
11
-48.089181600451113
21
-0.86833376693313369
31
0
0
LINE
5
746
100
AcDbEntity
8
0
100
AcDbLine
10
-42.3315175887751
20
2.8249842502640377
30
0
11
-42.488533999770993
21
2.8228274637299222
31
0
0
LINE
5
747
100
AcDbEntity
8
0
100
AcDbLine
10
-44.442436743272694
20
1.7406037293956445
30
0
11
-44.616897259966997
21
1.4985640710893477
31
0
0
LINE
5
748
100
AcDbEntity
8
0
100
AcDbLine
10
-30.019042063638139
20
2.5480127568293653
30
0
11
-30.293891638024704
21
2.5993044009339883
31
0
0
LINE
5
749
100
AcDbEntity
8
0
100
AcDbLine
10
-42.948873339252664
20
2.7590566678365747
30
0
11
-43.097450199360388
21
2.7193672070353614
31
0
0
LINE
5
750
100
AcDbEntity
8
0
100
AcDbLine
10
-28.205436393041239
20
0.89699161006542738
30
0
11
-28.476474188311069
21
1.4234470640289487
31
0
0
LINE
5
751
100
AcDbEntity
8
0
100
AcDbLine
10
-25.584321537244598
20
3.4442449349860027
30
0
11
-25.711780540246252
21
3.4125670392385388
31
0
0
LINE
5
752
100
AcDbEntity
8
0
100
AcDbLine
10
-42.644025352892839
20
2.8109870811619686
30
0
11
-42.797601761575152
21
2.7896633875381127
31
0
0
LINE
5
753
100
AcDbEntity
8
0
100
AcDbLine
10
-50.067124936597807
20
-1.0656424671842046
30
0
11
-50.314506401668311
21
-1.0476775792579218
31
0
0
LINE
5
754
100
AcDbEntity
8
0
100
AcDbLine
10
-25.397714105017268
20
3.4297120180185203
30
0
11
-25.584321537244598
21
3.4442449349860027
31
0
0
LINE
5
755
100
AcDbEntity
8
0
100
AcDbLine
10
-52.906369544773199
20
-0.2670491803046815
30
0
11
-53.122473445994601
21
-0.14557544618355678
31
0
0
LINE
5
756
100
AcDbEntity
8
0
100
AcDbLine
10
-56.27102116792507
20
5.2426286810086964
30
0
11
-56.27183884965735
21
5.5300623103794067
31
0
0
LINE
5
757
100
AcDbEntity
8
0
100
AcDbLine
10
-56.157566049982634
20
6.6752768313292421
30
0
11
-56.100883117733204
21
6.9488326634499487
31
0
0
LINE
5
758
100
AcDbEntity
8
0
100
AcDbLine
10
-55.856913664049628
20
3.0655600353792067
30
0
11
-55.945490871979828
21
3.3163997382565924
31
0
0
LINE
5
759
100
AcDbEntity
8
0
100
AcDbLine
10
-54.313158618070652
20
0.74795785774860235
30
0
11
-54.491163243676723
21
0.92343334294419321
31
0
0
LINE
5
760
100
AcDbEntity
8
0
100
AcDbLine
10
-55.2756605194038
20
1.908855532704905
30
0
11
-55.409364906190078
21
2.1268775119183658
31
0
0
LINE
5
761
100
AcDbEntity
8
0
100
AcDbLine
10
-53.957363186631675
20
10.402409526629555
30
0
11
-53.76149396925608
21
10.556193463642529
31
0
0
LINE
5
762
100
AcDbEntity
8
0
100
AcDbLine
10
-51.291402683329004
20
-0.88524443896751848
30
0
11
-51.53097657487541
21
-0.82247233638810258
31
0
0
LINE
5
763
100
AcDbEntity
8
0
100
AcDbLine
10
-45.58072150728897
20
0.45971505576339666
30
0
11
-45.789700791625023
21
0.2855436964438951
31
0
0
LINE
5
764
100
AcDbEntity
8
0
100
AcDbLine
10
-52.686017117263297
20
-0.38042471484658336
30
0
11
-52.906369544773199
21
-0.2670491803046815
31
0
0
LINE
5
765
100
AcDbEntity
8
0
100
AcDbLine
10
-46.669714150452258
20
-0.30234412594516868
30
0
11
-46.899248761316734
21
-0.42259625745970197
31
0
0
LINE
5
766
100
AcDbEntity
8
0
100
AcDbLine
10
-54.662530888252732
20
1.106239700295788
30
0
11
-54.826962994955991
21
1.2962810138754577
31
0
0
LINE
5
767
100
AcDbEntity
8
0
100
AcDbLine
10
-45.789700791625023
20
0.2855436964438951
30
0
11
-46.003388254952014
21
0.1223480145413447
31
0
0
LINE
5
768
100
AcDbEntity
8
0
100
AcDbLine
10
-46.899248761316734
20
-0.42259625745970197
30
0
11
-47.131998766958802
21
-0.5323522911973555
31
0
0
LINE
5
769
100
AcDbEntity
8
0
100
AcDbLine
10
-51.049670163392179
20
-0.93924693047213736
30
0
11
-51.291402683329004
21
-0.88524443896751848
31
0
0
LINE
5
770
100
AcDbEntity
8
0
100
AcDbLine
10
-47.367665610535887
20
-0.63170814308534773
30
0
11
-47.605950735205376
21
-0.72075972905217611
31
0
0
LINE
5
771
100
AcDbEntity
8
0
100
AcDbLine
10
-48.33353022734174
20
-0.92704805070312091
30
0
11
-48.579302907954172
21
-0.97584173226358928
31
0
0
LINE
5
772
100
AcDbEntity
8
0
100
AcDbLine
10
-46.443693491208364
20
-0.17149998072532924
30
0
11
-46.669714150452258
21
-0.30234412594516868
31
0
0
LINE
5
773
100
AcDbEntity
8
0
100
AcDbLine
10
-56.024146973610833
20
3.573515238082976
30
0
11
-56.092583412100097
21
3.8368106189305706
31
0
0
LINE
5
774
100
AcDbEntity
8
0
100
AcDbLine
10
-55.758713906663033
20
2.8210920453786059
30
0
11
-55.856913664049628
21
3.0655600353792067
31
0
0
LINE
5
775
100
AcDbEntity
8
0
100
AcDbLine
10
-51.070545653730292
20
11.767646312626567
30
0
11
-50.827075730939193
21
11.813179563990062
31
0
0
LINE
5
776
100
AcDbEntity
8
0
100
AcDbLine
10
-55.000771569149833
20
9.3203891310736964
30
0
11
-54.84407008420753
21
9.5192649561484188
31
0
0
LINE
5
777
100
AcDbEntity
8
0
100
AcDbLine
10
-50.582056272136398
20
11.849787773429554
30
0
11
-50.335788999709372
21
11.877385502929769
31
0
0
LINE
5
778
100
AcDbEntity
8
0
100
AcDbLine
10
-44.249048366419295
20
1.9864857317352858
30
0
11
-44.349234289739755
21
1.8669845337355895
31
0
0
LINE
5
779
100
AcDbEntity
8
0
100
AcDbLine
10
-56.100883117733204
20
6.9488326634499487
30
0
11
-56.033598977847149
21
7.2160265940959079
31
0
0
LINE
5
780
100
AcDbEntity
8
0
100
AcDbLine
10
-49.819077627350588
20
-1.0743581643961164
30
0
11
-50.067124936597807
21
-1.0656424671842046
31
0
0
LINE
5
781
100
AcDbEntity
8
0
100
AcDbLine
10
-50.314506401668311
20
-1.0476775792579218
30
0
11
-50.560923465719284
21
-1.0205594165451259
31
0
0
LINE
5
782
100
AcDbEntity
8
0
100
AcDbLine
10
-52.254091943946968
20
11.409094757473284
30
0
11
-52.022895537027111
21
11.497971648232124
31
0
0
LINE
5
783
100
AcDbEntity
8
0
100
AcDbLine
10
-53.938432651139593
20
0.41938316753750371
30
0
11
-54.128815568277474
21
0.57990916063701548
31
0
0
LINE
5
784
100
AcDbEntity
8
0
100
AcDbLine
10
-54.128815568277474
20
0.57990916063701548
30
0
11
-54.313158618070652
21
0.74795785774860235
31
0
0
LINE
5
785
100
AcDbEntity
8
0
100
AcDbLine
10
-44.142268859876424
20
2.0989070384170105
30
0
11
-44.249048366419295
21
1.9864857317352858
31
0
0
LINE
5
786
100
AcDbEntity
8
0
100
AcDbLine
10
-45.376748958786607
20
0.64495800842742312
30
0
11
-45.58072150728897
21
0.45971505576339666
31
0
0
LINE
5
787
100
AcDbEntity
8
0
100
AcDbLine
10
-53.76149396925608
20
10.556193463642529
30
0
11
-53.560152824831206
21
10.702163052926252
31
0
0
LINE
5
788
100
AcDbEntity
8
0
100
AcDbLine
10
-49.073926202974043
20
-1.0440509524666908
30
0
11
-49.322179703695816
21
-1.063658322965253
31
0
0
LINE
5
789
100
AcDbEntity
8
0
100
AcDbLine
10
-51.53097657487541
20
-0.82247233638810258
30
0
11
-51.768093281189081
21
-0.75102653866188973
31
0
0
LINE
5
790
100
AcDbEntity
8
0
100
AcDbLine
10
-52.022895537027111
20
11.497971648232124
30
0
11
-51.788640982158142
21
11.57835068714185
31
0
0
LINE
5
791
100
AcDbEntity
8
0
100
AcDbLine
10
-51.768093281189081
20
-0.75102653866188973
30
0
11
-52.002454245427536
21
-0.67100296171666685
31
0
0
LINE
5
792
100
AcDbEntity
8
0
100
AcDbLine
10
-55.133826367374184
20
1.6976848460081584
30
0
11
-55.2756605194038
21
1.908855532704905
31
0
0
LINE
5
793
100
AcDbEntity
8
0
100
AcDbLine
10
-44.349234289739755
20
1.8669845337355895
30
0
11
-44.442436743272694
21
1.7406037293956445
31
0
0
LINE
5
794
100
AcDbEntity
8
0
100
AcDbLine
10
-42.488533999770993
20
2.8228274637299222
30
0
11
-42.644025352892839
21
2.8109870811619686
31
0
0
LINE
5
795
100
AcDbEntity
8
0
100
AcDbLine
10
-48.089181600451113
20
-0.86833376693313369
30
0
11
-48.33353022734174
21
-0.92704805070312091
31
0
0
LINE
5
796
100
AcDbEntity
8
0
100
AcDbLine
10
-55.664484789683534
20
8.2194745416324366
30
0
11
-55.548720447425623
21
8.4535773946799253
31
0
0
LINE
5
797
100
AcDbEntity
8
0
100
AcDbLine
10
-56.237921402020632
20
6.1094212147234117
30
0
11
-56.203346052207543
21
6.3954445357486378
31
0
0
LINE
5
798
100
AcDbEntity
8
0
100
AcDbLine
10
-50.827075730939193
20
11.813179563990062
30
0
11
-50.582056272136398
21
11.849787773429554
31
0
0
LINE
5
799
100
AcDbEntity
8
0
100
AcDbLine
10
-44.797857296708159
20
1.2680755857672921
30
0
11
-44.985018296653593
21
1.0490423575016194
31
0
0
LINE
5
800
100
AcDbEntity
8
0
100
AcDbLine
10
-56.033598977847149
20
7.2160265940959079
30
0
11
-55.956015352711447
21
7.4767731852520569
31
0
0
LINE
5
801
100
AcDbEntity
8
0
100
AcDbLine
10
-54.984161006944063
20
1.4934613677556996
30
0
11
-55.133826367374184
21
1.6976848460081584
31
0
0
LINE
5
802
100
AcDbEntity
8
0
100
AcDbLine
10
-55.424165231855639
20
8.6808057181628584
30
0
11
-55.291120865361322
21
8.9010740740661021
31
0
0
LINE
5
803
100
AcDbEntity
8
0
100
AcDbLine
10
-54.491163243676723
20
0.92343334294419321
30
0
11
-54.662530888252732
21
1.106239700295788
31
0
0
LINE
5
804
100
AcDbEntity
8
0
100
AcDbLine
10
-54.33147895068501
20
10.071740361475392
30
0
11
-54.147458754570494
21
10.240896679902107
31
0
0
LINE
5
805
100
AcDbEntity
8
0
100
AcDbLine
10
-43.910488643385015
20
2.3017088379125994
30
0
11
-44.029285656676727
21
2.2040481688019753
31
0
0
LINE
5
806
100
AcDbEntity
8
0
100
AcDbLine
10
-55.534640970890521
20
2.3516548677203986
30
0
11
-55.651190156662402
21
2.5830916841830742
31
0
0
LINE
5
807
100
AcDbEntity
8
0
100
AcDbLine
10
-30.293891638024704
20
2.5993044009339883
30
0
11
-30.572738823122911
21
2.6197340034330807
31
0
0
LINE
5
808
100
AcDbEntity
8
0
100
AcDbLine
10
-54.84407008420753
20
9.5192649561484188
30
0
11
-54.68008633789114
21
9.710839061583556
31
0
0
LINE
5
809
100
AcDbEntity
8
0
100
AcDbLine
10
-52.926315053135824
20
11.092331354251499
30
0
11
-52.706103424388758
21
11.206189172467873
31
0
0
LINE
5
810
100
AcDbEntity
8
0
100
AcDbLine
10
-51.788640982158142
20
11.57835068714185
30
0
11
-51.551630001727133
21
11.65014643618747
31
0
0
LINE
5
811
100
AcDbEntity
8
0
100
AcDbLine
10
-54.826962994955991
20
1.2962810138754577
30
0
11
-54.984161006944063
21
1.4934613677556996
31
0
0
LINE
5
812
100
AcDbEntity
8
0
100
AcDbLine
10
-49.570663030768912
20
-1.0737287549657282
30
0
11
-49.819077627350588
21
-1.0743581643961164
31
0
0
LINE
5
813
100
AcDbEntity
8
0
100
AcDbLine
10
-55.945490871979828
20
3.3163997382565924
30
0
11
-56.024146973610833
21
3.573515238082976
31
0
0
LINE
5
814
100
AcDbEntity
8
0
100
AcDbLine
10
-49.344276221509233
20
11.895962861241713
30
0
11
-49.096295716773554
21
11.877226620822441
31
0
0
LINE
5
815
100
AcDbEntity
8
0
100
AcDbLine
10
-53.353641475744624
20
10.840232856465661
30
0
11
-53.142261644383609
21
10.970317436245622
31
0
0
LINE
5
816
100
AcDbEntity
8
0
100
AcDbLine
10
-56.260990377034346
20
5.8172923062681292
30
0
11
-56.237921402020632
21
6.1094212147234117
31
0
0
LINE
5
817
100
AcDbEntity
8
0
100
AcDbLine
10
-56.15050163060458
20
4.1061899648715894
30
0
11
-56.197603072282085
21
4.3815573599773927
31
0
0
LINE
5
818
100
AcDbEntity
8
0
100
AcDbLine
10
-56.092583412100097
20
3.8368106189305706
30
0
11
-56.15050163060458
21
4.1061899648715894
31
0
0
LINE
5
819
100
AcDbEntity
8
0
100
AcDbLine
10
-56.27183884965735
20
5.5300623103794067
30
0
11
-56.260990377034346
21
5.8172923062681292
31
0
0
LINE
5
820
100
AcDbEntity
8
0
100
AcDbLine
10
-49.096295716773554
20
11.877226620822441
30
0
11
-48.84887773273887
21
11.848967272374651
31
0
0
LINE
5
821
100
AcDbEntity
8
0
100
AcDbLine
10
-48.84887773273887
20
11.848967272374651
30
0
11
-48.60232399179246
21
11.81109937788257
31
0
0
LINE
5
822
100
AcDbEntity
8
0
100
AcDbLine
10
-55.291120865361322
20
8.9010740740661021
30
0
11
-55.149889070330204
21
9.1142970243746646
31
0
0
LINE
5
823
100
AcDbEntity
8
0
100
AcDbLine
10
-55.651190156662402
20
2.5830916841830742
30
0
11
-55.758713906663033
21
2.8210920453786059
31
0
0
LINE
5
824
100
AcDbEntity
8
0
100
AcDbLine
10
-51.312164318122022
20
11.713273457353992
30
0
11
-51.070545653730292
21
11.767646312626567
31
0
0
LINE
5
825
100
AcDbEntity
8
0
100
AcDbLine
10
-53.560152824831206
20
10.702163052926252
30
0
11
-53.353641475744624
21
10.840232856465661
31
0
0
LINE
5
826
100
AcDbEntity
8
0
100
AcDbLine
10
-52.48192848053003
20
11.311805452880108
30
0
11
-52.254091943946968
21
11.409094757473284
31
0
0
LINE
5
827
100
AcDbEntity
8
0
100
AcDbLine
10
-55.956015352711447
20
7.4767731852520569
30
0
11
-55.868433964714029
21
7.7309869989034752
31
0
0
LINE
5
828
100
AcDbEntity
8
0
100
AcDbLine
10
-55.868433964714029
20
7.7309869989034752
30
0
11
-55.771156536242174
21
7.978582597035313
31
0
0
LINE
5
829
100
AcDbEntity
8
0
100
AcDbLine
10
-53.142261644383609
20
10.970317436245622
30
0
11
-52.926315053135824
21
11.092331354251499
31
0
0
LINE
5
830
100
AcDbEntity
8
0
100
AcDbLine
10
-50.088575636045753
20
11.895887314476212
30
0
11
-49.840717903532727
21
11.905207770053678
31
0
0
LINE
5
831
100
AcDbEntity
8
0
100
AcDbLine
10
-55.409364906190078
20
2.1268775119183658
30
0
11
-55.534640970890521
21
2.3516548677203986
31
0
0
LINE
5
832
100
AcDbEntity
8
0
100
AcDbLine
10
-50.335788999709372
20
11.877385502929769
30
0
11
-50.088575636045753
21
11.895887314476212
31
0
0
LINE
5
833
100
AcDbEntity
8
0
100
AcDbLine
10
-49.840717903532727
20
11.905207770053678
30
0
11
-49.592517524558133
21
11.905261431647176
31
0
0
LINE
5
834
100
AcDbEntity
8
0
100
AcDbLine
10
-52.706103424388758
20
11.206189172467873
30
0
11
-52.48192848053003
21
11.311805452880108
31
0
0
LINE
5
835
100
AcDbEntity
8
0
100
AcDbLine
10
-55.771156536242174
20
7.978582597035313
30
0
11
-55.664484789683534
21
8.2194745416324366
31
0
0
LINE
5
836
100
AcDbEntity
8
0
100
AcDbLine
10
-54.509122052587813
20
9.8950260093641873
30
0
11
-54.33147895068501
21
10.071740361475392
31
0
0
LINE
5
837
100
AcDbEntity
8
0
100
AcDbLine
10
-49.592517524558133
20
11.905261431647176
30
0
11
-49.344276221509233
21
11.895962861241713
31
0
0
LINE
5
838
100
AcDbEntity
8
0
100
AcDbLine
10
-55.149889070330204
20
9.1142970243746646
30
0
11
-55.000771569149833
21
9.3203891310736964
31
0
0
LINE
5
839
100
AcDbEntity
8
0
100
AcDbLine
10
-54.68008633789114
20
9.710839061583556
30
0
11
-54.509122052587813
21
9.8950260093641873
31
0
0
LINE
5
840
100
AcDbEntity
8
0
100
AcDbLine
10
-48.60232399179246
20
11.81109937788257
30
0
11
-48.3569362163216
21
11.763537499331918
31
0
0
LINE
5
841
100
AcDbEntity
8
0
100
AcDbLine
10
-48.3569362163216
20
11.763537499331918
30
0
11
-48.113016128714392
21
11.706196198707417
31
0
0
LINE
5
842
100
AcDbEntity
8
0
100
AcDbLine
10
-56.203346052207543
20
6.3954445357486378
30
0
11
-56.157566049982634
21
6.6752768313292421
31
0
0
LINE
5
843
100
AcDbEntity
8
0
100
AcDbLine
10
-43.68434592181265
20
8.230783898680869
30
0
11
-43.558034896668367
21
8.1442240859491477
31
0
0
LINE
5
844
100
AcDbEntity
8
0
100
AcDbLine
10
-27.35607954153113
20
10.248388208659662
30
0
11
-26.947110004094561
21
10.74072549455245
31
0
0
LINE
5
845
100
AcDbEntity
8
0
100
AcDbLine
10
-42.860282627582656
20
7.8344151402571782
30
0
11
-42.710171359576215
21
7.7985477634159395
31
0
0
LINE
5
846
100
AcDbEntity
8
0
100
AcDbLine
10
-45.613055166838961
20
10.405564762685913
30
0
11
-45.410281679816727
21
10.224206232008157
31
0
0
LINE
5
847
100
AcDbEntity
8
0
100
AcDbLine
10
-56.233589180289876
20
4.6628168883211885
30
0
11
-56.258161397785138
21
4.9498726339741239
31
0
0
LINE
5
848
100
AcDbEntity
8
0
100
AcDbLine
10
-47.870865451357894
20
11.638990037994148
30
0
11
-47.630785906639559
21
11.56183357917719
31
0
0
LINE
5
849
100
AcDbEntity
8
0
100
AcDbLine
10
-29.930962529552563
20
7.594085885048969
30
0
11
-29.660833510814175
21
7.6662207208137545
31
0
0
LINE
5
850
100
AcDbEntity
8
0
100
AcDbLine
10
-26.503263365308925
20
11.201867822765905
30
0
11
-26.026911928235492
21
11.629350447008591
31
0
0
LINE
5
851
100
AcDbEntity
8
0
100
AcDbLine
10
-51.551630001727133
20
11.65014643618747
30
0
11
-51.312164318122022
21
11.713273457353992
31
0
0
LINE
5
852
100
AcDbEntity
8
0
100
AcDbLine
10
-55.548720447425623
20
8.4535773946799253
30
0
11
-55.424165231855639
21
8.6808057181628584
31
0
0
LINE
5
853
100
AcDbEntity
8
0
100
AcDbLine
10
-26.947110004094561
20
10.74072549455245
30
0
11
-26.503263365308925
21
11.201867822765905
31
0
0
LINE
5
854
100
AcDbEntity
8
0
100
AcDbLine
10
-54.147458754570494
20
10.240896679902107
30
0
11
-53.957363186631675
21
10.402409526629555
31
0
0
LINE
5
855
100
AcDbEntity
8
0
100
AcDbLine
10
-43.151092327042051
20
7.9328856156812577
30
0
11
-43.007383836475263
21
7.8792656809504535
31
0
0
LINE
5
856
100
AcDbEntity
8
0
100
AcDbLine
10
-47.630785906639559
20
11.56183357917719
30
0
11
-47.393079216947299
21
11.474641384241551
31
0
0
LINE
5
857
100
AcDbEntity
8
0
100
AcDbLine
10
-46.250698877435646
20
10.885154037258573
30
0
11
-46.033565488035904
21
10.735953227296307
31
0
0
LINE
5
858
100
AcDbEntity
8
0
100
AcDbLine
10
-46.697213501900272
20
11.15199600257256
30
0
11
-46.472015456186284
21
11.023806483012351
31
0
0
LINE
5
859
100
AcDbEntity
8
0
100
AcDbLine
10
-44.132703286415264
20
8.651890901091619
30
0
11
-44.029912274084694
21
8.5358115273957225
31
0
0
LINE
5
860
100
AcDbEntity
8
0
100
AcDbLine
10
-45.820917010374544
20
10.576118615110275
30
0
11
-45.613055166838961
21
10.405564762685913
31
0
0
LINE
5
861
100
AcDbEntity
8
0
100
AcDbLine
10
-24.781378952101054
20
12.496176038085949
30
0
11
-23.998223076246113
21
12.895013663919954
31
0
0
LINE
5
862
100
AcDbEntity
8
0
100
AcDbLine
10
-56.197603072282085
20
4.3815573599773927
30
0
11
-56.233589180289876
21
4.6628168883211885
31
0
0
LINE
5
863
100
AcDbEntity
8
0
100
AcDbLine
10
-48.113016128714392
20
11.706196198707417
30
0
11
-47.870865451357894
21
11.638990037994148
31
0
0
LINE
5
864
100
AcDbEntity
8
0
100
AcDbLine
10
-47.393079216947299
20
11.474641384241551
30
0
11
-47.158047104668235
21
11.377328015172097
31
0
0
LINE
5
865
100
AcDbEntity
8
0
100
AcDbLine
10
-28.350087568208746
20
8.6641316803356005
30
0
11
-28.06084185146095
21
9.1808073492186537
31
0
0
LINE
5
866
100
AcDbEntity
8
0
100
AcDbLine
10
-18.839341227055968
20
13.51465454688892
30
0
11
-17.984013423470067
21
13.312617604524419
31
0
0
LINE
5
867
100
AcDbEntity
8
0
100
AcDbLine
10
-42.245603792993421
20
7.7469823141534278
30
0
11
-30.486825027341133
21
7.5417320673226129
31
0
0
LINE
5
868
100
AcDbEntity
8
0
100
AcDbLine
10
-42.402449283069529
20
7.7546175805493789
30
0
11
-42.245603792993421
21
7.7469823141534278
31
0
0
LINE
5
869
100
AcDbEntity
8
0
100
AcDbLine
10
-23.179026165609766
20
13.213323260493581
30
0
11
-22.332043478256622
21
13.447897140094938
31
0
0
LINE
5
870
100
AcDbEntity
8
0
100
AcDbLine
10
-28.708640545187734
20
8.2361552775074642
30
0
11
-28.517436746917308
21
8.4401509363396343
31
0
0
LINE
5
871
100
AcDbEntity
8
0
100
AcDbLine
10
-44.228657647512762
20
8.7748157404909222
30
0
11
-44.132703286415264
21
8.651890901091619
31
0
0
LINE
5
872
100
AcDbEntity
8
0
100
AcDbLine
10
-44.483299875969244
20
9.1523530742923498
30
0
11
-44.31739269816498
21
8.9043722757791244
31
0
0
LINE
5
873
100
AcDbEntity
8
0
100
AcDbLine
10
-43.920667269732697
20
8.4267913892191615
30
0
11
-43.805350932571365
21
8.3250442563758753
31
0
0
LINE
5
874
100
AcDbEntity
8
0
100
AcDbLine
10
-29.400394158521983
20
7.7679284642410806
30
0
11
-29.152870921561743
21
7.8979491105251043
31
0
0
LINE
5
875
100
AcDbEntity
8
0
100
AcDbLine
10
-43.805350932571365
20
8.3250442563758753
30
0
11
-43.68434592181265
21
8.230783898680869
31
0
0
LINE
5
876
100
AcDbEntity
8
0
100
AcDbLine
10
-56.258161397785138
20
4.9498726339741239
30
0
11
-56.27102116792507
21
5.2426286810086964
31
0
0
LINE
5
877
100
AcDbEntity
8
0
100
AcDbLine
10
-46.033565488035904
20
10.735953227296307
30
0
11
-45.820917010374544
21
10.576118615110275
31
0
0
LINE
5
878
100
AcDbEntity
8
0
100
AcDbLine
10
-44.31739269816498
20
8.9043722757791244
30
0
11
-44.228657647512762
21
8.7748157404909222
31
0
0
LINE
5
879
100
AcDbEntity
8
0
100
AcDbLine
10
-29.152870921561743
20
7.8979491105251043
30
0
11
-28.921330237724092
21
8.0546719009019085
31
0
0
LINE
5
880
100
AcDbEntity
8
0
100
AcDbLine
10
-47.158047104668235
20
11.377328015172097
30
0
11
-46.925991292190126
21
11.269808033954192
31
0
0
LINE
5
881
100
AcDbEntity
8
0
100
AcDbLine
10
-43.426800516350553
20
8.0655785879952901
30
0
11
-43.29102544007101
21
7.9950611746344435
31
0
0
LINE
5
882
100
AcDbEntity
8
0
100
AcDbLine
10
-42.710171359576215
20
7.7985477634159395
30
0
11
-42.557432691667941
21
7.7718773202416003
31
0
0
LINE
5
883
100
AcDbEntity
8
0
100
AcDbLine
10
-46.472015456186284
20
11.023806483012351
30
0
11
-46.250698877435646
21
10.885154037258573
31
0
0
LINE
5
884
100
AcDbEntity
8
0
100
AcDbLine
10
-23.998223076246113
20
12.895013663919954
30
0
11
-23.179026165609766
21
13.213323260493581
31
0
0
LINE
5
885
100
AcDbEntity
8
0
100
AcDbLine
10
5.8261742662484295
20
10.110938185779474
30
0
11
6.0557088771128775
21
10.23119031729415
31
0
0
LINE
5
886
100
AcDbEntity
8
0
100
AcDbLine
10
-15.598579527613108
20
12.210513175983095
30
0
11
-15.077678763359348
21
11.838606629346344
31
0
0
LINE
5
887
100
AcDbEntity
8
0
100
AcDbLine
10
2.3994025711291833
20
7.1377987697216128
30
0
11
2.5414203364012344
21
7.195052857787374
31
0
0
LINE
5
888
100
AcDbEntity
8
0
100
AcDbLine
10
-14.585341477466658
20
11.429637091909797
30
0
11
-14.124199149253185
21
10.985790453124125
31
0
0
LINE
5
889
100
AcDbEntity
8
0
100
AcDbLine
10
-42.557432691667941
20
7.7718773202416003
30
0
11
-42.402449283069529
21
7.7546175805493789
31
0
0
LINE
5
890
100
AcDbEntity
8
0
100
AcDbLine
10
3.7733573757631689
20
8.3100299887451001
30
0
11
3.9543174125043024
21
8.5405184740671558
31
0
0
LINE
5
891
100
AcDbEntity
8
0
100
AcDbLine
10
-44.029912274084694
20
8.5358115273957225
30
0
11
-43.920667269732697
21
8.4267913892191615
31
0
0
LINE
5
892
100
AcDbEntity
8
0
100
AcDbLine
10
1.9540618773713003
20
7.0189306722964062
30
0
11
2.1053334550489478
21
7.0495373919977311
31
0
0
LINE
5
893
100
AcDbEntity
8
0
100
AcDbLine
10
4.9461609074212198
20
9.5230503633904107
30
0
11
5.1598483707483034
21
9.6862460452931032
31
0
0
LINE
5
894
100
AcDbEntity
8
0
100
AcDbLine
10
-13.305178444251498
20
10.003128817706752
30
0
11
-12.951677627538913
21
9.4695660208264343
31
0
0
LINE
5
895
100
AcDbEntity
8
0
100
AcDbLine
10
-43.558034896668367
20
8.1442240859491477
30
0
11
-43.426800516350553
21
8.0655785879952901
31
0
0
LINE
5
896
100
AcDbEntity
8
0
100
AcDbLine
10
-46.925991292190126
20
11.269808033954192
30
0
11
-46.697213501900272
21
11.15199600257256
31
0
0
LINE
5
897
100
AcDbEntity
8
0
100
AcDbLine
10
-16.355426730160065
20
12.657224612986369
30
0
11
-15.598579527613108
21
12.210513175983095
31
0
0
LINE
5
898
100
AcDbEntity
8
0
100
AcDbLine
10
-12.638103491162598
20
8.9116024497689494
30
0
11
-12.367065695892778
21
8.3851469958054281
31
0
0
LINE
5
899
100
AcDbEntity
8
0
100
AcDbLine
10
-44.835508581705511
20
9.6144481903037615
30
0
11
-44.656105744612027
21
9.3890165664622316
31
0
0
LINE
5
900
100
AcDbEntity
8
0
100
AcDbLine
10
6.5241257263320485
20
10.440302202919582
30
0
11
6.7624108510016256
21
10.529353788886553
31
0
0
LINE
5
901
100
AcDbEntity
8
0
100
AcDbLine
10
-15.077678763359348
20
11.838606629346344
30
0
11
-14.585341477466658
21
11.429637091909797
31
0
0
LINE
5
902
100
AcDbEntity
8
0
100
AcDbLine
10
9.4709665174644719
20
10.856271639092228
30
0
11
9.717383581515584
21
10.829153476379645
31
0
0
LINE
5
903
100
AcDbEntity
8
0
100
AcDbLine
10
-28.517436746917308
20
8.4401509363396343
30
0
11
-28.350087568208746
21
8.6641316803356005
31
0
0
LINE
5
904
100
AcDbEntity
8
0
100
AcDbLine
10
-27.727986088167889
20
9.7274874444060089
30
0
11
-27.35607954153113
21
10.248388208659662
31
0
0
LINE
5
905
100
AcDbEntity
8
0
100
AcDbLine
10
-25.520601729891553
20
12.020888527767539
30
0
11
-24.781378952101054
21
12.496176038085949
31
0
0
LINE
5
906
100
AcDbEntity
8
0
100
AcDbLine
10
-20.589055815731232
20
13.657249950603756
30
0
11
-19.710615375740677
21
13.629919179369168
31
0
0
LINE
5
907
100
AcDbEntity
8
0
100
AcDbLine
10
-45.212898271695394
20
10.031957585061875
30
0
11
-45.021206664862589
21
9.8287333838319313
31
0
0
LINE
5
908
100
AcDbEntity
8
0
100
AcDbLine
10
-17.984013423470067
20
13.312617604524419
30
0
11
-17.153251323353125
21
13.02584433053191
31
0
0
LINE
5
909
100
AcDbEntity
8
0
100
AcDbLine
10
-45.410281679816727
20
10.224206232008157
30
0
11
-45.212898271695394
21
10.031957585061875
31
0
0
LINE
5
910
100
AcDbEntity
8
0
100
AcDbLine
10
-19.710615375740677
20
13.629919179369168
30
0
11
-18.839341227055968
21
13.51465454688892
31
0
0
LINE
5
911
100
AcDbEntity
8
0
100
AcDbLine
10
-28.06084185146095
20
9.1808073492186537
30
0
11
-27.727986088167889
21
9.7274874444060089
31
0
0
LINE
5
912
100
AcDbEntity
8
0
100
AcDbLine
10
-43.29102544007101
20
7.9950611746344435
30
0
11
-43.151092327042051
21
7.9328856156812577
31
0
0
LINE
5
913
100
AcDbEntity
8
0
100
AcDbLine
10
-26.026911928235492
20
11.629350447008591
30
0
11
-25.520601729891553
21
12.020888527767539
31
0
0
LINE
5
914
100
AcDbEntity
8
0
100
AcDbLine
10
-44.656105744612027
20
9.3890165664622316
30
0
11
-44.483299875969244
21
9.1523530742923498
31
0
0
LINE
5
915
100
AcDbEntity
8
0
100
AcDbLine
10
-45.021206664862589
20
9.8287333838319313
30
0
11
-44.835508581705511
21
9.6144481903037615
31
0
0
LINE
5
916
100
AcDbEntity
8
0
100
AcDbLine
10
-13.696716525010437
20
10.509439016050806
30
0
11
-13.305178444251498
21
10.003128817706752
31
0
0
LINE
5
917
100
AcDbEntity
8
0
100
AcDbLine
10
3.0669487591812761
20
7.5068852219219195
30
0
11
3.185745772472881
21
7.6045458910324726
31
0
0
LINE
5
918
100
AcDbEntity
8
0
100
AcDbLine
10
7.9826612012423404
20
10.823404787376489
30
0
11
8.2303863187701864
21
10.85264501230121
31
0
0
LINE
5
919
100
AcDbEntity
8
0
100
AcDbLine
10
-12.207635277018785
20
8.1554622927163933
30
0
11
-12.023667300758802
21
7.9449179862005082
31
0
0
LINE
5
920
100
AcDbEntity
8
0
100
AcDbLine
10
-21.46581027667316
20
13.596371441378068
30
0
11
-20.589055815731232
21
13.657249950603756
31
0
0
LINE
5
921
100
AcDbEntity
8
0
100
AcDbLine
10
-17.153251323353125
20
13.02584433053191
30
0
11
-16.355426730160065
21
12.657224612986369
31
0
0
LINE
5
922
100
AcDbEntity
8
0
100
AcDbLine
10
-43.007383836475263
20
7.8792656809504535
30
0
11
-42.860282627582656
21
7.8344151402571782
31
0
0
LINE
5
923
100
AcDbEntity
8
0
100
AcDbLine
10
-14.124199149253185
20
10.985790453124125
30
0
11
-13.696716525010437
21
10.509439016050806
31
0
0
LINE
5
924
100
AcDbEntity
8
0
100
AcDbLine
10
-30.486825027341133
20
7.5417320673226129
30
0
11
-30.207434725568962
21
7.5524175982430819
31
0
0
LINE
5
925
100
AcDbEntity
8
0
100
AcDbLine
10
-30.207434725568962
20
7.5524175982430819
30
0
11
-29.930962529552563
21
7.594085885048969
31
0
0
LINE
5
926
100
AcDbEntity
8
0
100
AcDbLine
10
-11.591510762536714
20
7.5914144287217766
30
0
11
-11.348675965160862
21
7.4528345511102856
31
0
0
LINE
5
927
100
AcDbEntity
8
0
100
AcDbLine
10
-28.921330237724092
20
8.0546719009019085
30
0
11
-28.708640545187734
21
8.2361552775074642
31
0
0
LINE
5
928
100
AcDbEntity
8
0
100
AcDbLine
10
3.2987289756726845
20
7.7096870214175084
30
0
11
3.4055084822154846
21
7.8221083280990911
31
0
0
LINE
5
929
100
AcDbEntity
8
0
100
AcDbLine
10
6.7624108510016256
20
10.529353788886553
30
0
11
7.003015699920816
21
10.608197024859791
31
0
0
LINE
5
930
100
AcDbEntity
8
0
100
AcDbLine
10
-29.660833510814175
20
7.6662207208137545
30
0
11
-29.400394158521983
21
7.7679284642410806
31
0
0
LINE
5
931
100
AcDbEntity
8
0
100
AcDbLine
10
2.5414203364012344
20
7.195052857787374
30
0
11
2.6795737244077422
21
7.2607888320185765
31
0
0
LINE
5
932
100
AcDbEntity
8
0
100
AcDbLine
10
-22.332043478256622
20
13.447897140094938
30
0
11
-21.46581027667316
21
13.596371441378068
31
0
0
LINE
5
933
100
AcDbEntity
8
0
100
AcDbLine
10
6.0557088771128775
20
10.23119031729415
30
0
11
6.288458882754977
21
10.340946351031519
31
0
0
LINE
5
934
100
AcDbEntity
8
0
100
AcDbLine
10
7.245641716247242
20
10.676927826767439
30
0
11
7.4899903431379045
21
10.735642110537427
31
0
0
LINE
5
935
100
AcDbEntity
8
0
100
AcDbLine
10
7.7357630237504438
20
10.784435792097966
30
0
11
7.9826612012423404
21
10.823404787376489
31
0
0
LINE
5
936
100
AcDbEntity
8
0
100
AcDbLine
10
8.975537743146873
20
10.882952224230493
30
0
11
9.2235850523939611
21
10.874236527018581
31
0
0
LINE
5
937
100
AcDbEntity
8
0
100
AcDbLine
10
8.4786398194920842
20
10.87225238279963
30
0
11
8.7271231465650878
21
10.882322814800105
31
0
0
LINE
5
938
100
AcDbEntity
8
0
100
AcDbLine
10
10.206130279188592
20
10.747840990306656
30
0
11
10.447862799125183
21
10.693838498801895
31
0
0
LINE
5
939
100
AcDbEntity
8
0
100
AcDbLine
10
11.390221026543834
20
10.391091581314882
30
0
11
11.618174836103368
21
10.294200193715568
31
0
0
LINE
5
940
100
AcDbEntity
8
0
100
AcDbLine
10
1.4879777045712395
20
6.9836098095704102
30
0
11
1.6449941155671421
21
6.9857665961044546
31
0
0
LINE
5
941
100
AcDbEntity
8
0
100
AcDbLine
10
-12.951677627538913
20
9.4695660208264343
30
0
11
-12.638103491162598
21
8.9116024497689494
31
0
0
LINE
5
942
100
AcDbEntity
8
0
100
AcDbLine
10
-10.270801061080927
20
7.1888600564012961
30
0
11
1.4879777045712395
21
6.9836098095704102
31
0
0
LINE
5
943
100
AcDbEntity
8
0
100
AcDbLine
10
14.565825021986374
20
7.681716547916082
30
0
11
14.691101086686693
21
7.4569391921139783
31
0
0
LINE
5
944
100
AcDbEntity
8
0
100
AcDbLine
10
4.3345418187568718
20
8.967225589470047
30
0
11
4.5332090745827891
21
9.1636360514069537
31
0
0
LINE
5
945
100
AcDbEntity
8
0
100
AcDbLine
10
3.5988968590689652
20
8.0679903304387324
30
0
11
3.7733573757631689
21
8.3100299887451001
31
0
0
LINE
5
946
100
AcDbEntity
8
0
100
AcDbLine
10
5.3779454562235429
20
9.8385619657068446
30
0
11
5.6001536070046676
21
9.980094040559564
31
0
0
LINE
5
947
100
AcDbEntity
8
0
100
AcDbLine
10
2.6795737244077422
20
7.2607888320185765
30
0
11
2.8134728485833715
21
7.3348064074367159
31
0
0
LINE
5
948
100
AcDbEntity
8
0
100
AcDbLine
10
4.7371816230851316
20
9.3488790040709802
30
0
11
4.9461609074212198
21
9.5230503633904107
31
0
0
LINE
5
949
100
AcDbEntity
8
0
100
AcDbLine
10
9.717383581515584
20
10.829153476379645
30
0
11
9.9625376877044935
21
10.792977954808407
31
0
0
LINE
5
950
100
AcDbEntity
8
0
100
AcDbLine
10
9.2235850523939611
20
10.874236527018581
30
0
11
9.4709665174644719
21
10.856271639092228
31
0
0
LINE
5
951
100
AcDbEntity
8
0
100
AcDbLine
10
-11.348675965160862
20
7.4528345511102856
30
0
11
-11.091944814541561
21
7.3420995629756192
31
0
0
LINE
5
952
100
AcDbEntity
8
0
100
AcDbLine
10
3.5056944055359018
20
7.9416095260987873
30
0
11
3.5988968590689652
21
8.0679903304387324
31
0
0
LINE
5
953
100
AcDbEntity
8
0
100
AcDbLine
10
-10.54964824617902
20
7.2092896589004596
30
0
11
-10.270801061080927
21
7.1888600564012961
31
0
0
LINE
5
954
100
AcDbEntity
8
0
100
AcDbLine
10
-12.023667300758802
20
7.9449179862005082
30
0
11
-11.817440851539782
21
7.756122401140999
31
0
0
LINE
5
955
100
AcDbEntity
8
0
100
AcDbLine
10
-11.817440851539782
20
7.756122401140999
30
0
11
-11.591510762536714
21
7.5914144287217766
31
0
0
LINE
5
956
100
AcDbEntity
8
0
100
AcDbLine
10
1.8004854686889882
20
6.9976069786724082
30
0
11
1.9540618773713003
21
7.0189306722964062
31
0
0
LINE
5
957
100
AcDbEntity
8
0
100
AcDbLine
10
2.8134728485833715
20
7.3348064074367159
30
0
11
2.942727822363036
21
7.4169052990638562
31
0
0
LINE
5
958
100
AcDbEntity
8
0
100
AcDbLine
10
3.4055084822154846
20
7.8221083280990911
30
0
11
3.5056944055359018
21
7.9416095260987873
31
0
0
LINE
5
959
100
AcDbEntity
8
0
100
AcDbLine
10
8.2303863187701864
20
10.85264501230121
30
0
11
8.4786398194920842
21
10.87225238279963
31
0
0
LINE
5
960
100
AcDbEntity
8
0
100
AcDbLine
10
6.288458882754977
20
10.340946351031519
30
0
11
6.5241257263320485
21
10.440302202919582
31
0
0
LINE
5
961
100
AcDbEntity
8
0
100
AcDbLine
10
5.6001536070046676
20
9.980094040559564
30
0
11
5.8261742662484295
21
10.110938185779474
31
0
0
LINE
5
962
100
AcDbEntity
8
0
100
AcDbLine
10
3.9543174125043024
20
8.5405184740671558
30
0
11
4.1414784124498638
21
8.7595517023327574
31
0
0
LINE
5
963
100
AcDbEntity
8
0
100
AcDbLine
10
7.003015699920816
20
10.608197024859791
30
0
11
7.245641716247242
21
10.676927826767439
31
0
0
LINE
5
964
100
AcDbEntity
8
0
100
AcDbLine
10
-12.367065695892778
20
8.3851469958054281
30
0
11
-12.207635277018785
21
8.1554622927163933
31
0
0
LINE
5
965
100
AcDbEntity
8
0
100
AcDbLine
10
4.1414784124498638
20
8.7595517023327574
30
0
11
4.3345418187568718
21
8.967225589470047
31
0
0
LINE
5
966
100
AcDbEntity
8
0
100
AcDbLine
10
10.447862799125183
20
10.693838498801895
30
0
11
10.68743669067155
21
10.631066396222479
31
0
0
LINE
5
967
100
AcDbEntity
8
0
100
AcDbLine
10
2.1053334550489478
20
7.0495373919977311
30
0
11
2.2539103151566575
21
7.0892268527990154
31
0
0
LINE
5
968
100
AcDbEntity
8
0
100
AcDbLine
10
2.942727822363036
20
7.4169052990638562
30
0
11
3.0669487591812761
21
7.5068852219219195
31
0
0
LINE
5
969
100
AcDbEntity
8
0
100
AcDbLine
10
4.5332090745827891
20
9.1636360514069537
30
0
11
4.7371816230851316
21
9.3488790040709802
31
0
0
LINE
5
970
100
AcDbEntity
8
0
100
AcDbLine
10
-10.824497820565684
20
7.2605813030050825
30
0
11
-10.54964824617902
21
7.2092896589004596
31
0
0
LINE
5
971
100
AcDbEntity
8
0
100
AcDbLine
10
1.6449941155671421
20
6.9857665961044546
30
0
11
1.8004854686889882
21
6.9976069786724082
31
0
0
LINE
5
972
100
AcDbEntity
8
0
100
AcDbLine
10
9.9625376877044935
20
10.792977954808407
30
0
11
10.206130279188592
21
10.747840990306656
31
0
0
LINE
5
973
100
AcDbEntity
8
0
100
AcDbLine
10
3.185745772472881
20
7.6045458910324726
30
0
11
3.2987289756726845
21
7.7096870214175084
31
0
0
LINE
5
974
100
AcDbEntity
8
0
100
AcDbLine
10
14.30634918612645
20
0.69429703545964117
30
0
11
14.157231684946012
21
0.48820492876060939
31
0
0
LINE
5
975
100
AcDbEntity
8
0
100
AcDbLine
10
15.112475468507771
20
2.3318208745823199
30
0
11
15.024894080510158
21
2.0776070609308306
31
0
0
LINE
5
976
100
AcDbEntity
8
0
100
AcDbLine
10
14.157231684946012
20
0.48820492876060939
30
0
11
14.000530200003762
21
0.28932910368595799
31
0
0
LINE
5
977
100
AcDbEntity
8
0
100
AcDbLine
10
15.306961746400738
20
5.7024040949628585
30
0
11
15.354063188078264
21
5.4270366998569131
31
0
0
LINE
5
978
100
AcDbEntity
8
0
100
AcDbLine
10
2.2539103151566575
20
7.0892268527990154
30
0
11
2.3994025711291833
21
7.1377987697216128
31
0
0
LINE
5
979
100
AcDbEntity
8
0
100
AcDbLine
10
11.158914361223697
20
10.479597021551044
30
0
11
11.390221026543834
21
10.391091581314882
31
0
0
LINE
5
980
100
AcDbEntity
8
0
100
AcDbLine
10
7.4899903431379045
20
10.735642110537427
30
0
11
7.7357630237504438
21
10.784435792097966
31
0
0
LINE
5
981
100
AcDbEntity
8
0
100
AcDbLine
10
8.7271231465650878
20
10.882322814800105
30
0
11
8.975537743146873
21
10.882952224230493
31
0
0
LINE
5
982
100
AcDbEntity
8
0
100
AcDbLine
10
5.1598483707483034
20
9.6862460452931032
30
0
11
5.3779454562235429
21
9.8385619657068446
31
0
0
LINE
5
983
100
AcDbEntity
8
0
100
AcDbLine
10
-11.091944814541561
20
7.3420995629756192
30
0
11
-10.824497820565684
21
7.2605813030050825
31
0
0
LINE
5
984
100
AcDbEntity
8
0
100
AcDbLine
10
11.842477233059565
20
10.189018774681031
30
0
11
12.062829660569356
21
10.075643240139058
31
0
0
LINE
5
985
100
AcDbEntity
8
0
100
AcDbLine
10
13.46961873386693
20
9.0606362020859166
30
0
11
13.647623359472902
21
8.8851607168901836
31
0
0
LINE
5
986
100
AcDbEntity
8
0
100
AcDbLine
10
14.705180563221756
20
1.3550166651544515
30
0
11
14.580625347651814
21
1.1277883416715895
31
0
0
LINE
5
987
100
AcDbEntity
8
0
100
AcDbLine
10
11.618174836103368
20
10.294200193715568
30
0
11
11.842477233059565
21
10.189018774681031
31
0
0
LINE
5
988
100
AcDbEntity
8
0
100
AcDbLine
10
13.665582168383938
20
-0.086431949529881535
30
0
11
13.487939066481278
21
-0.26314630164101516
31
0
0
LINE
5
989
100
AcDbEntity
8
0
100
AcDbLine
10
13.094892766935757
20
9.3892108922970152
30
0
11
13.285275684073614
21
9.2286848991972903
31
0
0
LINE
5
990
100
AcDbEntity
8
0
100
AcDbLine
10
15.0133737798458
20
6.7430340244551701
30
0
11
15.101950987775989
21
6.4921943215777134
31
0
0
LINE
5
991
100
AcDbEntity
8
0
100
AcDbLine
10
14.432120635199936
20
7.8997385271294007
30
0
11
14.565825021986374
21
7.681716547916082
31
0
0
LINE
5
992
100
AcDbEntity
8
0
100
AcDbLine
10
14.290286483170398
20
8.1109092138262895
30
0
11
14.432120635199936
21
7.8997385271294007
31
0
0
LINE
5
993
100
AcDbEntity
8
0
100
AcDbLine
10
15.024894080510158
20
2.0776070609308306
30
0
11
14.927616652038296
21
1.8300114627990638
31
0
0
LINE
5
994
100
AcDbEntity
8
0
100
AcDbLine
10
12.917954085052337
20
-0.74759940380822343
30
0
11
12.716612940627492
21
-0.89356899309187554
31
0
0
LINE
5
995
100
AcDbEntity
8
0
100
AcDbLine
10
11.862563540184929
20
-1.3975951126334962
30
0
11
11.638388596326301
21
-1.5032113930458735
31
0
0
LINE
5
996
100
AcDbEntity
8
0
100
AcDbLine
10
15.3943815178169
20
3.6991728451108941
30
0
11
15.359806168003907
21
3.413149524085739
31
0
0
LINE
5
997
100
AcDbEntity
8
0
100
AcDbLine
10
12.062829660569356
20
10.075643240139058
30
0
11
12.278933561790755
21
9.9541695060179336
31
0
0
LINE
5
998
100
AcDbEntity
8
0
100
AcDbLine
10
15.19005909364342
20
2.592567465738469
30
0
11
15.112475468507771
21
2.3318208745823199
31
0
0
LINE
5
999
100
AcDbEntity
8
0
100
AcDbLine
10
13.303918870366687
20
-0.43230262006787257
30
0
11
13.113823302427825
21
-0.59381546679524888
31
0
0
LINE
5
1000
100
AcDbEntity
8
0
100
AcDbLine
10
13.487939066481278
20
-0.26314630164101516
30
0
11
13.303918870366687
21
-0.43230262006787257
31
0
0
LINE
5
1001
100
AcDbEntity
8
0
100
AcDbLine
10
10.68743669067155
20
10.631066396222479
30
0
11
10.92455339698537
21
10.559620598496409
31
0
0
LINE
5
1002
100
AcDbEntity
8
0
100
AcDbLine
10
14.807650272458694
20
7.2255023756512315
30
0
11
14.915174022459219
21
6.9875020144555577
31
0
0
LINE
5
1003
100
AcDbEntity
8
0
100
AcDbLine
10
14.447580981157593
20
0.90751998576841686
30
0
11
14.30634918612645
21
0.69429703545964117
31
0
0
LINE
5
1004
100
AcDbEntity
8
0
100
AcDbLine
10
14.927616652038296
20
1.8300114627990638
30
0
11
14.820944905479827
21
1.5891195182019402
31
0
0
LINE
5
1005
100
AcDbEntity
8
0
100
AcDbLine
10
12.298721760179774
20
-1.1617233764113877
30
0
11
12.082775168931974
21
-1.2837372944171221
31
0
0
LINE
5
1006
100
AcDbEntity
8
0
100
AcDbLine
10
13.285275684073614
20
9.2286848991972903
30
0
11
13.46961873386693
21
9.0606362020859166
31
0
0
LINE
5
1007
100
AcDbEntity
8
0
100
AcDbLine
10
11.638388596326301
20
-1.5032113930458735
30
0
11
11.410552059743129
21
-1.600500697638978
31
0
0
LINE
5
1008
100
AcDbEntity
8
0
100
AcDbLine
10
15.417450492830618
20
3.9913017535662476
30
0
11
15.3943815178169
21
3.6991728451108941
31
0
0
LINE
5
1009
100
AcDbEntity
8
0
100
AcDbLine
10
15.314026165778678
20
3.1333172285049216
30
0
11
15.257343233529372
21
2.8597613963844282
31
0
0
LINE
5
1010
100
AcDbEntity
8
0
100
AcDbLine
10
13.113823302427825
20
-0.59381546679524888
30
0
11
12.917954085052337
21
-0.74759940380822343
31
0
0
LINE
5
1011
100
AcDbEntity
8
0
100
AcDbLine
10
15.41462151358127
20
4.8587214258601108
30
0
11
15.42748128372132
21
4.5659653788256804
31
0
0
LINE
5
1012
100
AcDbEntity
8
0
100
AcDbLine
10
15.101950987775989
20
6.4921943215777134
30
0
11
15.18060708940709
21
6.2350788217514008
31
0
0
LINE
5
1013
100
AcDbEntity
8
0
100
AcDbLine
10
15.18060708940709
20
6.2350788217514008
30
0
11
15.249043527896369
21
5.9717834409037351
31
0
0
LINE
5
1014
100
AcDbEntity
8
0
100
AcDbLine
10
15.42748128372132
20
4.5659653788256804
30
0
11
15.428298965453529
21
4.2785317494548991
31
0
0
LINE
5
1015
100
AcDbEntity
8
0
100
AcDbLine
10
15.428298965453529
20
4.2785317494548991
30
0
11
15.417450492830618
21
3.9913017535662476
31
0
0
LINE
5
1016
100
AcDbEntity
8
0
100
AcDbLine
10
11.410552059743129
20
-1.600500697638978
30
0
11
11.179355652823268
21
-1.6893775883977469
31
0
0
LINE
5
1017
100
AcDbEntity
8
0
100
AcDbLine
10
11.179355652823268
20
-1.6893775883977469
30
0
11
10.945101097954311
21
-1.7697566273074017
31
0
0
LINE
5
1018
100
AcDbEntity
8
0
100
AcDbLine
10
14.691101086686693
20
7.4569391921139783
30
0
11
14.807650272458694
21
7.2255023756512315
31
0
0
LINE
5
1019
100
AcDbEntity
8
0
100
AcDbLine
10
12.716612940627492
20
-0.89356899309187554
30
0
11
12.510101591540792
21
-1.0316387966312135
31
0
0
LINE
5
1020
100
AcDbEntity
8
0
100
AcDbLine
10
15.359806168003907
20
3.413149524085739
30
0
11
15.314026165778678
21
3.1333172285049216
31
0
0
LINE
5
1021
100
AcDbEntity
8
0
100
AcDbLine
10
12.082775168931974
20
-1.2837372944171221
30
0
11
11.862563540184929
21
-1.3975951126334962
31
0
0
LINE
5
1022
100
AcDbEntity
8
0
100
AcDbLine
10
14.915174022459219
20
6.9875020144555577
30
0
11
15.0133737798458
21
6.7430340244551701
31
0
0
LINE
5
1023
100
AcDbEntity
8
0
100
AcDbLine
10
14.580625347651814
20
1.1277883416715895
30
0
11
14.447580981157593
21
0.90751998576841686
31
0
0
LINE
5
1024
100
AcDbEntity
8
0
100
AcDbLine
10
14.140621122740189
20
8.3151326920788193
30
0
11
14.290286483170398
21
8.1109092138262895
31
0
0
LINE
5
1025
100
AcDbEntity
8
0
100
AcDbLine
10
12.697201557996749
20
9.6873111027486658
30
0
11
12.898768539295915
21
9.5421182654568071
31
0
0
LINE
5
1026
100
AcDbEntity
8
0
100
AcDbLine
10
12.278933561790755
20
9.9541695060179336
30
0
11
12.490490379880743
21
9.8246934882450887
31
0
0
LINE
5
1027
100
AcDbEntity
8
0
100
AcDbLine
10
10.92455339698537
20
10.559620598496409
30
0
11
11.158914361223697
21
10.479597021551044
31
0
0
LINE
5
1028
100
AcDbEntity
8
0
100
AcDbLine
10
14.000530200003762
20
0.28932910368595799
30
0
11
13.836546453687184
21
0.097754998250607628
31
0
0
LINE
5
1029
100
AcDbEntity
8
0
100
AcDbLine
10
12.510101591540792
20
-1.0316387966312135
30
0
11
12.298721760179774
21
-1.1617233764113877
31
0
0
LINE
5
1030
100
AcDbEntity
8
0
100
AcDbLine
10
12.490490379880743
20
9.8246934882450887
30
0
11
12.697201557996749
21
9.6873111027486658
31
0
0
LINE
5
1031
100
AcDbEntity
8
0
100
AcDbLine
10
15.390049296086143
20
5.1457771715131173
30
0
11
15.41462151358127
21
4.8587214258601108
31
0
0
LINE
5
1032
100
AcDbEntity
8
0
100
AcDbLine
10
12.898768539295915
20
9.5421182654568071
30
0
11
13.094892766935757
21
9.3892108922970152
31
0
0
LINE
5
1033
100
AcDbEntity
8
0
100
AcDbLine
10
14.820944905479827
20
1.5891195182019402
30
0
11
14.705180563221756
21
1.3550166651544515
31
0
0
LINE
5
1034
100
AcDbEntity
8
0
100
AcDbLine
10
15.249043527896369
20
5.9717834409037351
30
0
11
15.306961746400738
21
5.7024040949628585
31
0
0
LINE
5
1035
100
AcDbEntity
8
0
100
AcDbLine
10
3.2891634022115568
20
1.1567031587429
30
0
11
3.1863723898808516
21
1.2727825324385833
31
0
0
LWPOLYLINE
5
1036
100
AcDbEntity
8
0
100
AcDbPolyline
90
519
70
1
43
0.0
10
32.713486995009475
20
56.838574681065808
10
32.885786733271573
20
56.618379491540551
10
33.081489733391876
20
56.418696099543624
10
33.271878754670269
20
56.262458664824209
10
33.457663362241377
20
56.119343845537912
10
33.830499805378395
20
55.846442941922874
10
43.34427673238725
20
48.932756927466414
10
43.474124880436463
20
48.844449150355089
10
43.60827897907356
20
48.76494799706883
10
43.746304779418864
20
48.694313078985658
10
43.887768032591566
20
48.63260400748274
10
44.032234489711861
20
48.579880393937884
10
44.179269901899865
20
48.5362018497284
10
44.328440020274762
20
48.501627986231597
10
44.479310595957372
20
48.476218414825141
10
44.63144738006676
20
48.46003274688691
10
44.784416123723375
20
48.453130593793503
10
44.937782578046672
20
48.45557156692287
10
45.091112494156661
20
48.467415277652606
10
45.243971623173067
20
48.488721337359948
10
45.395925716216169
20
48.519549357422633
10
45.546540524405458
20
48.559958949217901
10
45.695381798860964
20
48.610009724123415
10
45.977130015652072
20
48.708181056055011
10
46.257575465517959
20
48.793162385845079
10
46.536528626291549
20
48.865203548242278
10
46.813799975805267
20
48.924554377995619
10
47.089199991892073
20
48.971464709853763
10
47.362539152384748
20
49.006184378565081
10
47.633627935116145
20
49.028963218878374
10
47.902276817918867
20
49.040051065542372
10
48.16829627862576
20
49.039697753305944
10
48.431496795069755
20
49.028153116917679
10
48.691688845083249
20
49.005666991126233
10
48.948682906499371
20
48.972489210680195
10
49.202289457150847
20
48.928869610328647
10
49.45231897487016
20
48.875058024819822
10
49.698581937490744
20
48.811304288902662
10
49.940888822844762
20
48.737858237325966
10
50.179050108765253
20
48.654969704837967
10
50.412876273084862
20
48.562888526188033
10
50.642177793636556
20
48.461864536124466
10
50.86676514825308
20
48.352147569395711
10
51.08644881476696
20
48.23398746075128
10
51.301039271011071
20
48.107634044938905
10
51.510346994818562
20
47.973337156707956
10
51.71418246402208
20
47.831346630806806
10
51.912356156453754
20
47.681912301984397
10
52.104678549947252
20
47.525284004989103
10
52.290960122334766
20
47.361711574569938
10
52.471011351449462
20
47.191444845475488
10
52.64464271512368
20
47.014733652454268
10
52.81166469119087
20
46.831827830255293
10
52.971887757482975
20
46.642977213626935
10
53.125122391833237
20
46.448431637318066
10
53.271179072074553
20
46.248440936077557
10
53.409868276039454
20
46.043254944653924
10
53.54100048156095
20
45.833123497795683
10
53.664386166471743
20
45.618296430251917
10
53.779835808604176
20
45.399023576770929
10
53.887159885791753
20
45.175554772101734
10
53.986168875866767
20
44.948139850992916
10
54.076673256662261
20
44.717028648192994
10
54.158483506010775
20
44.482470998450907
10
54.231410101745077
20
44.244716736515244
10
54.295263521698175
20
44.004015697134946
10
54.349854243702858
20
43.760617715058103
10
54.394992745591665
20
43.514772625034084
10
54.430489505197656
20
43.266730261811261
10
54.456155000353149
20
43.016740460138436
10
54.471799708891453
20
42.765053054764124
10
54.477234108645085
20
42.511917880437196
10
54.472268677446856
20
42.257584771906309
10
54.456713893129759
20
42.002303563920051
10
54.430380233526172
20
41.746324091227507
10
54.393078176469238
20
41.489896188576623
10
54.344618199791469
20
41.233269690716909
10
54.284810781325454
20
40.976694432396599
10
54.213466398904657
20
40.720420248364562
10
54.130395530361461
20
40.464696973369314
10
54.035408653528449
20
40.209774442159798
10
53.928316246238452
20
39.9559024894846
10
53.80892878632487
20
39.703330950092592
10
53.677056751619752
20
39.452309658731579
10
53.532510619956177
20
39.20308845015164
10
53.375100869166957
20
38.955917159100579
10
53.210880810442553
20
38.720013508833873
10
53.037221915224947
20
38.490969085176872
10
52.850742983573262
20
38.264922442172775
10
52.658341817610577
20
38.050477609357358
10
52.460314568282556
20
37.847531481586358
10
52.256957386535667
20
37.655980953715726
10
52.048566423315648
20
37.475722920600703
10
51.83543782956805
20
37.306654277097593
10
51.617867756238965
20
37.148671918062419
10
51.396152354274385
20
37.001672738350422
10
51.170587774620358
20
36.865553632817409
10
50.941470168222374
20
36.74021149631912
10
50.709095686026458
20
36.625543223711929
10
50.473760478978953
20
36.521445709851079
10
50.235760698025075
20
36.427815849592662
10
49.995392494111371
20
36.344550537792415
10
49.752952018183372
20
36.27154666930565
10
49.508735421186962
20
36.208701138988602
10
49.263038854068455
20
36.155910841696937
10
49.016158467773266
20
36.113072672286677
10
48.768390413247445
20
36.080083525613205
10
48.520030841436963
20
36.056840296532542
10
48.271375903287662
20
36.043239879900426
10
48.022721749745756
20
36.039179170572595
10
47.77436453175676
20
36.044555063404999
10
47.526600400266652
20
36.059264453253235
10
47.279725506221375
20
36.08320423497311
10
47.034036000566957
20
36.116271303420646
10
46.789828034249169
20
36.158362553451298
10
46.547397758213869
20
36.209374879920944
10
46.307041323407141
20
36.269205177685606
10
46.069054880774857
20
36.337750341600739
10
45.833734581262661
20
36.41490726652215
10
45.601376575816857
20
36.500572847306003
10
45.372277015383077
20
36.594643978807611
10
45.146732050907147
20
36.697017555882923
10
44.925037833335267
20
36.80759047338789
10
44.707490513613273
20
36.926259626178108
10
44.494386242686744
20
37.052921909109529
10
44.286021171502071
20
37.187474217037817
10
44.082691451005083
20
37.329813444818569
10
43.884693232141068
20
37.479836487308162
10
43.692322665856658
20
37.637440239361624
10
43.505875903097362
20
37.802521595835117
10
43.325649094809563
20
37.974977451584593
10
43.151938391938351
20
38.154704701465576
10
42.985039945430472
20
38.341600240333946
10
42.825249906231377
20
38.535560963045441
10
42.672864425286988
20
38.73648376445594
10
42.528179653543283
20
38.94426553942111
10
42.39149174194619
20
39.158803182796831
10
42.263096841441467
20
39.379993589438627
10
42.143291102975397
20
39.607733654202875
10
42.032370677493383
20
39.841920271944673
10
41.930631715941885
20
40.082450337520044
10
41.838370369266187
20
40.32922074578515
10
41.755882788412592
20
40.582128391595376
10
41.683465124326879
20
40.84107016980667
10
41.621413527954978
20
41.10594297527463
10
41.570024150242766
20
41.376643702855063
10
41.529593142136676
20
41.65306924740392
10
41.50041665458177
20
41.935116503776939
10
41.482790838524281
20
42.222682366829929
10
41.47701184491018
20
42.515663731418627
10
41.483375824685481
20
42.8139574923987
10
41.48501534766897
20
42.970980156414242
10
41.476937238035688
20
43.126712297283447
10
41.459332297204966
20
43.280759300733394
10
41.432391326596075
20
43.432726552490379
10
41.396305127628779
20
43.582219438281626
10
41.351264501722085
20
43.728843343834143
10
41.297460250295771
20
43.872203654874653
10
41.235083174769187
20
44.011905757129952
10
41.164324076561769
20
44.147555036327049
10
41.085373757092881
20
44.278756878192453
10
40.998423017781974
20
44.405116668453459
10
40.903662660048568
20
44.526239792836719
10
40.801283485312076
20
44.641731637069242
10
40.691476294991901
20
44.751197586878035
10
40.574431890507384
20
44.854243027989611
10
40.450341073278167
20
44.950473346130906
10
30.936564146269383
20
51.864159360587365
10
30.701587908716395
20
52.015682590096546
10
30.451228231482883
20
52.140154086074375
10
30.188586691556178
20
52.236031835319281
10
29.916917019588762
20
52.302128057818535
10
29.639584791108486
20
52.337623921542047
10
29.360025732135586
20
52.342079686531875
10
29.081703155746386
20
52.315440152612283
10
28.808065056871097
20
52.258035343236884
10
28.542501396863589
20
52.170576416998244
10
28.348569632430376
20
52.0862494597759
10
28.083622445429679
20
51.955590329015067
10
27.524140852450767
20
51.644732752705238
10
26.943443256700377
20
51.375581516555187
10
26.344633411960974
20
51.149575199221644
10
25.730911879651099
20
50.967921775332812
10
25.105558922236391
20
50.831592159019792
10
24.471916970650387
20
50.741315014504949
10
23.833372759431874
20
50.697572861487288
10
23.193339225065177
20
50.70059949613487
10
22.606388845928773
20
50.76474191109078
10
22.019438466792334
20
50.82888432604669
10
21.393857766317446
20
50.964165044645569
10
20.77983246735613
20
51.144789012785949
10
20.180644455967762
20
51.369790818645242
10
19.599496314822744
20
51.637967856579365
10
19.039494205810819
20
51.947886754895478
10
18.884015111935746
20
52.049439493106888
10
18.729202013691832
20
52.135697373789256
10
18.588324602230664
20
52.194427874416078
10
18.324330012333174
20
52.286514669344868
10
18.05173696434391
20
52.34869305371916
10
17.773922473019823
20
52.380192731586277
10
17.494328238887373
20
52.380623469674603
10
17.216418010789418
20
52.34997993179185
10
16.943634675286141
20
52.288641744932747
10
16.679357604508311
20
52.19736879627618
10
16.426860790857241
20
52.077291819334093
10
16.189272287201817
20
51.92989838587728
10
6.5561187024841772
20
45.183539535607409
10
6.4303650314008465
20
45.089492636353583
10
6.3115375897009685
20
44.98850850564942
10
6.1998340462923451
20
44.880978362882402
10
6.0954520700823345
20
44.767293427440364
10
5.9985893299786852
20
44.647844918710575
10
5.9094434948888264
20
44.523024056080729
10
5.828212233720329
20
44.393222058938662
10
5.7550932153809242
20
44.258830146671286
10
5.6902841087780054
20
44.120239538666439
10
5.6339825828190193
20
43.977841454311886
10
5.586386306411768
20
43.832027112994894
10
5.5476929484638582
20
43.68318773410337
10
5.5181001778824701
20
43.531714537024655
10
5.49780566357569
20
43.377998741146087
10
5.4870070744506805
20
43.222431565855501
10
5.4859020794151014
20
43.065404230540665
10
5.4870518403654955
20
42.76704480614093
10
5.4761533267130424
20
42.474209188151093
10
5.4535044461290383
20
42.186995290170159
10
5.4194031062846726
20
41.905501025798131
10
5.3741472148512415
20
41.629824308634156
10
5.3180346794993838
20
41.360063052278448
10
5.2513634079006799
20
41.096315170330087
10
5.1744313077261062
20
40.838678576389142
10
5.0875362866470297
20
40.587251184054836
10
4.9909762523343737
20
40.342130906926954
10
4.8850491124596651
20
40.103415658605428
10
4.7700527746935961
20
39.871203352689122
10
4.6462851467075339
20
39.645591902778392
10
4.5140441361727923
20
39.426679222472387
10
4.3736276507603655
20
39.214563225370753
10
4.225333598141372
20
39.009341825073491
10
4.0694598859869124
20
38.811112935179679
10
3.9063044219684784
20
38.619974469289389
10
3.7361651137569574
20
38.436024341001769
10
3.5593398690233435
20
38.259360463916963
10
3.3761265954393593
20
38.090080751634119
10
3.1868232006755903
20
37.92828311775331
10
2.991727592403528
20
37.774065475873755
10
2.7911376782940067
20
37.627525739594958
10
2.5853513660187133
20
37.488761822517134
10
2.374666563248411
20
37.357871638239359
10
2.159381177654236
20
37.234953100361494
10
1.9397931169075378
20
37.1201041224829
10
1.716200288679417
20
37.013422618203649
10
1.4889006006408856
20
36.915006501123102
10
1.258191960463364
20
36.824953684840764
10
1.0243722758178819
20
36.74336208295621
10
0.78773945437546899
20
36.67032960906937
10
0.54859140380756344
20
36.605954176779463
10
0.3072260317851061
20
36.550333699686419
10
0.063941245979206585
20
36.503566091389601
10
-0.18096504593861695
20
36.465749265489151
10
-0.42719493629763683
20
36.436981135583792
10
-0.6744505174265214
20
36.417359615273952
10
-0.92243388165416107
20
36.406982618158779
10
-1.1708471213091975
20
36.40594805783806
10
-1.4193923287206367
20
36.414353847911443
10
-1.6677715962172535
20
36.43229790197843
10
-1.9156870161280359
20
36.459878133638739
10
-2.1628406807817857
20
36.497192456491874
10
-2.4089346825071978
20
36.544338784137622
10
-2.6536711136329494
20
36.601415030175417
10
-2.8967520664884638
20
36.668519108204833
10
-3.1378796334021519
20
36.745748931825872
10
-3.3767559067028863
20
36.833202414637469
10
-3.6130829787198149
20
36.930977470239625
10
-3.8465629417811265
20
37.039172012232129
10
-4.0768978882164753
20
37.157883954214412
10
-4.3037899103541388
20
37.287211209786122
10
-4.5269411005229454
20
37.427251692547046
10
-4.7460535510519453
20
37.578103316096403
10
-4.9608293542701709
20
37.739863994033698
10
-5.1709706025060598
20
37.912631639959216
10
-5.3761793880884756
20
38.096504167472389
10
-5.5761578033464598
20
38.291579490172083
10
-5.7706079406092137
20
38.497955521658795
10
-5.9592318922048815
20
38.715730175531817
10
-6.1417317504625224
20
38.945001365390581
10
-6.3113611384435409
20
39.177045823694954
10
-6.471433253608625
20
39.415783499488057
10
-6.6244991776908346
20
39.665668072137663
10
-6.7646676211595036
20
39.917377433188506
10
-6.8921324435694675
20
40.170665098307907
10
-7.0070875044761216
20
40.425284583162266
10
-7.1097266634349676
20
40.680989403418906
10
-7.2002437800002461
20
40.937533074745076
10
-7.2788327137274145
20
41.19466911280746
10
-7.3456873241717346
20
41.452151033273097
10
-7.4010014708884331
20
41.709732351808952
10
-7.4449690134321411
20
41.967166584081923
10
-7.4777838113582629
20
42.224207245759615
10
-7.4996397242218471
20
42.480607852508143
10
-7.5107306115779693
20
42.736121919994972
10
-7.5112503329818558
20
42.990502963887209
10
-7.5013927479885467
20
43.243504499851397
10
-7.4813517161531884
20
43.494880043555142
10
-7.4513210970309807
20
43.744383110664629
10
-7.411494750176697
20
43.991767216847677
10
-7.3620665351456882
20
44.236785877770899
10
-7.3032303114929942
20
44.47919260910119
10
-7.2351799387737969
20
44.71874092650566
10
-7.1581092765432253
20
44.955184345651276
10
-7.0722121843562302
20
45.188276382205075
10
-6.9776825217679761
20
45.417770551834167
10
-6.8747141483336804
20
45.643420370205305
10
-6.7635009236081611
20
45.8649793529856
10
-6.644236707147062
20
46.082201015841733
10
-6.5171153585048813
20
46.294838874441453
10
-6.3823307372369964
20
46.502646444451159
10
-6.2400767028987048
20
46.705377241537818
10
-6.0905471150448687
20
46.90278478136868
10
-5.9339358332306613
20
47.094622579610714
10
-5.7704367170113535
20
47.280644151930602
10
-5.6002436259416566
20
47.460603013995737
10
-5.4235504195770812
20
47.634252681473086
10
-5.2405509574723652
20
47.80134667002919
10
-5.0514390991829838
20
47.961638495331513
10
-4.8564087042637105
20
48.114881673046952
10
-4.6556536322700559
20
48.260829718842189
10
-4.4493677427565803
20
48.399236148384759
10
-4.2377448952786967
20
48.529854477341274
10
-4.0209789493918624
20
48.652438221378915
10
-3.7992637646508332
20
48.766740896164151
10
-3.5727932006103647
20
48.872516017364944
10
-3.3417611168260208
20
48.969517100647408
10
-3.1063613728530548
20
49.057497661678795
10
-2.8667878282461334
20
49.136211216126426
10
-2.6232343425606608
20
49.205411279656914
10
-2.3758947753513571
20
49.264851367937368
10
-2.1249629861739816
20
49.314284996634896
10
-1.8706328345830592
20
49.353465681416182
10
-1.6130981801340294
20
49.382146937948406
10
-1.35255288238187
20
49.400082281898676
10
-1.0891908008816831
20
49.40702522893389
10
-0.82320579518855297
20
49.402729294720942
10
-0.55479172485755512
20
49.386947994927084
10
-0.28414244944397815
20
49.359434845218928
10
-0.011451828502799799
20
49.319943361264009
10
0.2630862784108956
20
49.268227058728513
10
0.53927801174188161
20
49.204039453280188
10
0.81692951193521601
20
49.127134060585647
10
1.0958469194356191
20
49.03726439631221
10
1.3758363746879887
20
48.934183976126207
10
1.5237801844276255
20
48.881539563223271
10
1.6736657549082601
20
48.838503865057135
10
1.825057861752466
20
48.805024868673925
10
1.9775212805822129
20
48.781050561120765
10
2.1306207870202343
20
48.766528929443425
10
2.2839211566888462
20
48.761407960688814
10
2.4369871652104358
20
48.76563564190306
10
2.5893835882071947
20
48.779159960132432
10
2.7406752013017943
20
48.80192890242391
10
2.8904267801160888
20
48.833890455823621
10
3.0382031002731225
20
48.874992607377763
10
3.1835689373949094
20
48.925183344133032
10
3.3260890671036769
20
48.984410653135981
10
3.4653282650223716
20
49.052622521432525
10
3.6008513067726966
20
49.129766936069856
10
3.7322229679773855
20
49.215791884093534
10
13.365376552695221
20
55.962150734363476
10
13.810186575203964
20
56.317636230056536
10
13.957349313650447
20
56.440270037828952
10
14.1509192247619
20
56.642021892362351
10
14.320869216419645
20
56.864035679391307
10
14.455476615040368
20
57.055387608306347
10
14.579654082540774
20
57.274141805801193
10
14.686264008880325
20
57.50166572648709
10
14.768168784018521
20
57.719326824975354
10
14.795208774788513
20
57.825736999209028
10
14.815129730049872
20
57.945448612611301
10
14.832387713761079
20
58.152804386789043
10
14.800752690593377
20
59.472535290124355
10
14.825907620793632
20
60.112081469159122
10
14.8977204191781
20
60.74808068898534
10
15.015807255597942
20
61.377133615769566
10
15.179536971136791
20
61.99587804271907
10
15.388034451574093
20
62.601006860643338
10
15.637352903236454
20
63.136231399155349
10
15.886671354898763
20
63.671455937667574
10
16.215767839213324
20
64.220407292200008
10
16.584091090974606
20
64.743847898041054
10
16.989672469888379
20
65.238980032637386
10
17.430344195773948
20
65.703157278564532
10
17.903750935070128
20
66.133898668287188
10
18.407362389789768
20
66.528901944611079
10
18.938486821635667
20
66.886055865949885
10
19.494285438995131
20
67.203451490640731
10
19.835463601666081
20
67.372723191205353
10
20.424420906488958
20
67.623285316689632
10
21.030110270716591
20
67.830148749158994
10
21.64929436278582
20
67.99220783023685
10
21.759426346379659
20
68.012231486819999
42
-0.76000637891272671
10
21.848027609035885
20
67.841110438336401
10
20.990971274404568
20
66.970442250114601
10
20.214632374852766
20
66.027093657199103
10
19.525147179770368
20
65.018520992253741
10
18.927965457164486
20
63.952696126293915
10
18.427807398084148
20
62.838043458127828
10
18.03060323622141
20
61.689091784997032
10
18.009427833454463
20
61.512386520197992
10
18.052127872486885
20
61.339116721394902
10
18.15409667998324
20
61.191166417600726
10
18.309323726688049
20
61.086581029475155
10
18.435846749179259
20
61.051350200576877
10
18.622787681316986
20
61.060657580955322
10
18.78654748090824
20
61.134614718088187
10
18.912654129771393
20
61.260879636506047
10
18.983136240674092
20
61.41751606592976
10
19.27149864363713
20
62.452826430784398
10
19.61939086820486
20
63.48703424915044
10
20.021431828676608
20
64.501419717099822
10
20.476498751613459
20
65.493149976360385
10
20.983320778807766
20
66.459455437503365
10
21.541362977744409
20
67.398456058553009
10
21.7689953906706
20
67.693551712275806
10
22.006795234902064
20
67.985045334589529
42
-0.61836867687769748
10
22.180815341983493
20
67.943422095085282
10
22.488317363482739
20
66.620510710668839
10
22.511701188002107
20
66.496443327367558
10
22.524568947960883
20
66.370848981945443
10
22.526829485180038
20
66.244617413707161
10
22.51846678549267
20
66.118642876191416
10
22.499540092191825
20
65.993817802071248
10
21.607489005536777
20
61.419017026072282
10
21.57052319018522
20
61.047880470433356
10
21.603053188633687
20
60.676328840593143
10
21.703949563454668
20
60.317262362090958
10
21.869709205290828
20
59.983147777593047
10
22.051416320600623
20
59.713217760459045
10
22.303729986450769
20
59.423995078370027
10
22.476646438613823
20
59.137159865686115
10
22.610319803239829
20
58.830067094273915
10
22.702425889738898
20
58.508056213255983
10
22.751363241455334
20
58.176726054243701
10
22.827991703664949
20
57.895036607756083
10
23.001270969256087
20
57.660100102292517
10
23.247762794692477
20
57.503694714034452
10
23.534098352236068
20
57.446976570959691
10
23.821570991333569
20
57.497617276305704
10
24.071320256564981
20
57.648766771837572
10
24.249536709672466
20
57.879980442118963
10
24.332114289173177
20
58.159983672184197
10
24.388058382456475
20
58.490202988837154
10
24.486964140006275
20
58.810190785147682
10
24.627111878686083
20
59.114383405056614
10
24.806064837392885
20
59.397491824631459
10
25.064447766210876
20
59.681305509828206
10
25.251831356508756
20
59.947326336063895
10
25.424630508445887
20
60.27785510565252
10
25.533109436375092
20
60.634704004531699
10
25.573501765655688
20
61.005483284119109
10
25.5444050797289
20
61.37731953477811
10
24.749450417026981
20
65.969988079919588
10
24.733171819998088
20
66.095186027694979
10
24.727479192898478
20
66.221309430935946
10
24.732412863611284
20
66.347464802370055
10
24.747937880875686
20
66.472758428254863
10
24.773944261888889
20
66.596302699651488
10
25.10939715108875
20
67.912404285157848
42
-0.61836867687765229
10
25.284259818781472
20
67.950332364239827
10
25.515832352989758
20
67.653867426740533
10
25.73716344413759
20
67.354016616583152
10
26.275192007424977
20
66.403407060975468
10
26.761433560606473
20
65.426583656544679
10
27.19539311129159
20
64.425437353623067
10
27.575858747497666
20
63.402764037676036
10
27.901767948853173
20
62.361419712317741
10
28.168137330550262
20
61.320233955830332
10
28.235286001100981
20
61.162139822405948
10
28.358690013390895
20
61.033232234338683
10
28.520846631656376
20
60.955823182880025
10
28.70754849274908
20
60.942558398578299
10
28.834789336816584
20
60.975101510386054
10
28.9921967262271
20
61.076375659096627
10
29.097276312037277
20
61.222133028519181
10
29.143636703325182
20
61.394459551812233
10
29.126208746733475
20
61.57157368060787
10
28.753428996002395
20
62.728680568858124
10
28.276991975641774
20
63.85367675567089
10
27.702518862640595
20
64.931911098080377
10
27.034550356660585
20
65.954861111390599
10
26.278366155394384
20
66.914441284418587
10
25.439943223245265
20
67.803066988277848
42
-0.76000637891270562
10
25.532149029615976
20
67.972273035007689
10
25.641832197291397
20
67.949921226088108
10
26.257444904111171
20
67.774783906154852
10
26.858616934337665
20
67.555138110145094
10
27.442135100975786
20
67.292157816520515
10
27.779651477197778
20
67.115697783999337
10
28.328602831730603
20
66.786601299684492
10
28.852043437571666
20
66.418278047923351
10
29.347175572167892
20
66.012696669009472
10
29.811352818094985
20
65.572024943123992
10
30.242094207817694
20
65.09861820382767
10
30.637097484141602
20
64.595006749107995
10
30.994251405480391
20
64.063882317262042
10
31.311647030171095
20
63.508083699902826
10
31.549573258927381
20
62.967698553331815
10
31.787499487683686
20
62.427313406760732
10
31.983133298972177
20
61.817904268732917
10
32.133721003510978
20
61.195830777195823
10
32.238457729433691
20
60.564417834760889
10
32.296783672443482
20
59.927040262200109
10
32.308387087894687
20
59.287104760464899
10
32.273205957027891
20
58.648031702307577
10
32.267402633620179
20
58.424415137011749
10
32.266229371429972
20
58.144823032775435
10
32.296134747887386
20
57.866832403878874
10
32.356748280699094
20
57.593887132925872
10
32.447319060051392
20
57.329368598182313
10
32.566725051246181
20
57.07655378342217
0
LINE
5
1037
100
AcDbEntity
8
0
100
AcDbLine
10
-10.636105158634894
20
2.2561764615912949
30
0
11
-10.912577354651294
21
2.2145081747854789
31
0
0
LINE
5
1038
100
AcDbEntity
8
0
100
AcDbLine
10
8.2527558325697292
20
-2.068632560988064
30
0
11
8.0053378485350102
21
-2.040373212540203
31
0
0
LINE
5
1039
100
AcDbEntity
8
0
100
AcDbLine
10
-12.326103137286539
20
1.3684431234946715
30
0
11
-12.493452315995111
21
1.1444623794987052
31
0
0
LINE
5
1040
100
AcDbEntity
8
0
100
AcDbLine
10
2.8408060376087985
20
1.5778101611534368
30
0
11
2.7144950124644129
21
1.6643699738853002
31
0
0
LINE
5
1041
100
AcDbEntity
8
0
100
AcDbLine
10
3.63975999176537
20
0.65624098554202703
30
0
11
3.4738528139611269
21
0.90422178405518139
31
0
0
LINE
5
1042
100
AcDbEntity
8
0
100
AcDbLine
10
13.836546453687184
20
0.097754998250607628
30
0
11
13.665582168383938
21
-0.086431949529881535
31
0
0
LINE
5
1043
100
AcDbEntity
8
0
100
AcDbLine
10
2.0167427433789165
20
1.9741789195771986
30
0
11
1.8666314753724755
21
2.0100462964184374
31
0
0
LINE
5
1044
100
AcDbEntity
8
0
100
AcDbLine
10
8.7489776403544006
20
-2.0966673718128703
30
0
11
8.5007363373053835
21
-2.0873688014074077
31
0
0
LINE
5
1045
100
AcDbEntity
8
0
100
AcDbLine
10
6.5495393327435814
20
-1.6660473244071028
30
0
11
6.3145072204644137
21
-1.5687339553378621
31
0
0
LINE
5
1046
100
AcDbEntity
8
0
100
AcDbLine
10
5.8536736176964155
20
-1.3434019427381827
30
0
11
5.6284755719824453
21
-1.2152124231780448
31
0
0
LINE
5
1047
100
AcDbEntity
8
0
100
AcDbLine
10
13.647623359472902
20
8.8851607168901836
30
0
11
13.818991004048904
21
8.7023543595385178
31
0
0
LINE
5
1048
100
AcDbEntity
8
0
100
AcDbLine
10
5.1900256038320691
20
-0.9273591674619297
30
0
11
4.9773771261707012
21
-0.76752455527589802
31
0
0
LINE
5
1049
100
AcDbEntity
8
0
100
AcDbLine
10
10.468624433918343
20
-1.9046793975197573
30
0
11
10.227005769526585
21
-1.9590522527922616
31
0
0
LINE
5
1050
100
AcDbEntity
8
0
100
AcDbLine
10
2.4474855558672637
20
1.8135328852000754
30
0
11
2.3075524428383165
21
1.8757084441531191
31
0
0
LINE
5
1051
100
AcDbEntity
8
0
100
AcDbLine
10
7.7587841075887454
20
-2.0025053180482644
30
0
11
7.5133963321178676
21
-1.9549434394976117
31
0
0
LINE
5
1052
100
AcDbEntity
8
0
100
AcDbLine
10
4.9773771261707012
20
-0.76752455527589802
30
0
11
4.7695152826351084
21
-0.59697070285153586
31
0
0
LINE
5
1053
100
AcDbEntity
8
0
100
AcDbLine
10
3.0771273855289749
20
1.3818026706151443
30
0
11
2.9618110483676219
21
1.4835498034584305
31
0
0
LINE
5
1054
100
AcDbEntity
8
0
100
AcDbLine
10
9.2450357518418969
20
-2.0872932546418355
30
0
11
8.9971780193289064
21
-2.0966137102193727
31
0
0
LINE
5
1055
100
AcDbEntity
8
0
100
AcDbLine
10
-10.356714856862599
20
2.2668619925116928
30
0
11
-10.636105158634894
21
2.2561764615912949
31
0
0
LINE
5
1056
100
AcDbEntity
8
0
100
AcDbLine
10
15.354063188078264
20
5.4270366998569131
30
0
11
15.390049296086143
21
5.1457771715131173
31
0
0
LINE
5
1057
100
AcDbEntity
8
0
100
AcDbLine
10
10.227005769526585
20
-1.9590522527922616
30
0
11
9.9835358467354851
21
-2.0045855041557559
31
0
0
LINE
5
1058
100
AcDbEntity
8
0
100
AcDbLine
10
15.257343233529372
20
2.8597613963844282
30
0
11
15.19005909364342
21
2.592567465738469
31
0
0
LINE
5
1059
100
AcDbEntity
8
0
100
AcDbLine
10
13.983423110752149
20
8.512313045958777
30
0
11
14.140621122740189
21
8.3151326920788193
31
0
0
LINE
5
1060
100
AcDbEntity
8
0
100
AcDbLine
10
-11.690668962642095
20
1.9106449493092015
30
0
11
-11.922209646479658
21
1.7539221589326104
31
0
0
LINE
5
1061
100
AcDbEntity
8
0
100
AcDbLine
10
8.9971780193289064
20
-2.0966137102193727
30
0
11
8.7489776403544006
21
-2.0966673718128703
31
0
0
LINE
5
1062
100
AcDbEntity
8
0
100
AcDbLine
10
4.7695152826351084
20
-0.59697070285153586
30
0
11
4.5667417956128808
21
-0.41561217217370938
31
0
0
LINE
5
1063
100
AcDbEntity
8
0
100
AcDbLine
10
9.7385163879326697
20
-2.0411937135951774
30
0
11
9.4922491155056576
21
-2.0687914430953924
31
0
0
LINE
5
1064
100
AcDbEntity
8
0
100
AcDbLine
10
2.1638439522714048
20
1.9293283788838522
30
0
11
2.0167427433789165
21
1.9741789195771986
31
0
0
LINE
5
1065
100
AcDbEntity
8
0
100
AcDbLine
10
9.9835358467354851
20
-2.0045855041557559
30
0
11
9.7385163879326697
21
-2.0411937135951774
31
0
0
LINE
5
1066
100
AcDbEntity
8
0
100
AcDbLine
10
3.1863723898808516
20
1.2727825324385833
30
0
11
3.0771273855289749
21
1.3818026706151443
31
0
0
LINE
5
1067
100
AcDbEntity
8
0
100
AcDbLine
10
9.4922491155056576
20
-2.0687914430953924
30
0
11
9.2450357518418969
21
-2.0872932546418355
31
0
0
LINE
5
1068
100
AcDbEntity
8
0
100
AcDbLine
10
13.818991004048904
20
8.7023543595385178
30
0
11
13.983423110752149
21
8.512313045958777
31
0
0
LINE
5
1069
100
AcDbEntity
8
0
100
AcDbLine
10
-12.493452315995111
20
1.1444623794987052
30
0
11
-12.78269803274279
21
0.62778671061579416
31
0
0
LINE
5
1070
100
AcDbEntity
8
0
100
AcDbLine
10
6.0824514079863334
20
-1.461213974119957
30
0
11
5.8536736176964155
21
-1.3434019427381827
31
0
0
LINE
5
1071
100
AcDbEntity
8
0
100
AcDbLine
10
10.708090117523419
20
-1.8415523763530928
30
0
11
10.468624433918343
21
-1.9046793975197573
31
0
0
LINE
5
1072
100
AcDbEntity
8
0
100
AcDbLine
10
3.9919686975017576
20
0.19414586953054425
30
0
11
3.8125658604080925
21
0.41957749337207417
31
0
0
LINE
5
1073
100
AcDbEntity
8
0
100
AcDbLine
10
10.945101097954311
20
-1.7697566273074017
30
0
11
10.708090117523419
21
-1.8415523763530928
31
0
0
LINE
5
1074
100
AcDbEntity
8
0
100
AcDbLine
10
8.5007363373053835
20
-2.0873688014074077
30
0
11
8.2527558325697292
21
-2.068632560988064
31
0
0
LINE
5
1075
100
AcDbEntity
8
0
100
AcDbLine
10
3.4738528139611269
20
0.90422178405518139
30
0
11
3.3851177633089158
21
1.0337783193435968
31
0
0
LINE
5
1076
100
AcDbEntity
8
0
100
AcDbLine
10
6.7872460224358733
20
-1.753239519342884
30
0
11
6.5495393327435814
21
-1.6660473244071028
31
0
0
LINE
5
1077
100
AcDbEntity
8
0
100
AcDbLine
10
-10.912577354651294
20
2.2145081747854789
30
0
11
-11.182706373389566
21
2.1423733390205513
31
0
0
LINE
5
1078
100
AcDbEntity
8
0
100
AcDbLine
10
1.5589093988657954
20
2.0539764792849979
30
0
11
1.4020639087895859
21
2.061611745680878
31
0
0
LINE
5
1079
100
AcDbEntity
8
0
100
AcDbLine
10
-12.134899339016085
20
1.5724387823269126
30
0
11
-12.326103137286539
21
1.3684431234946715
31
0
0
LINE
5
1080
100
AcDbEntity
8
0
100
AcDbLine
10
6.3145072204644137
20
-1.5687339553378621
30
0
11
6.0824514079863334
21
-1.461213974119957
31
0
0
LINE
5
1081
100
AcDbEntity
8
0
100
AcDbLine
10
4.1776667806587575
20
-0.02013932399755447
30
0
11
3.9919686975017576
21
0.19414586953054425
31
0
0
LINE
5
1082
100
AcDbEntity
8
0
100
AcDbLine
10
2.3075524428383165
20
1.8757084441531191
30
0
11
2.1638439522714048
21
1.9293283788838522
31
0
0
LINE
5
1083
100
AcDbEntity
8
0
100
AcDbLine
10
8.0053378485350102
20
-2.040373212540203
30
0
11
7.7587841075887454
21
-2.0025053180482644
31
0
0
LINE
5
1084
100
AcDbEntity
8
0
100
AcDbLine
10
5.6284755719824453
20
-1.2152124231780448
30
0
11
5.4071589932319242
21
-1.0765599774241963
31
0
0
LINE
5
1085
100
AcDbEntity
8
0
100
AcDbLine
10
4.3693583874915909
20
-0.22336352522742686
30
0
11
4.1776667806587575
21
-0.02013932399755447
31
0
0
LINE
5
1086
100
AcDbEntity
8
0
100
AcDbLine
10
7.5133963321178676
20
-1.9549434394976117
30
0
11
7.2694762445105354
21
-1.8976021388728981
31
0
0
LINE
5
1087
100
AcDbEntity
8
0
100
AcDbLine
10
5.4071589932319242
20
-1.0765599774241963
30
0
11
5.1900256038320691
21
-0.9273591674619297
31
0
0
LINE
5
1088
100
AcDbEntity
8
0
100
AcDbLine
10
3.3851177633089158
20
1.0337783193435968
30
0
11
3.2891634022115568
21
1.1567031587429
31
0
0
LINE
5
1089
100
AcDbEntity
8
0
100
AcDbLine
10
-11.922209646479658
20
1.7539221589326104
30
0
11
-12.134899339016085
21
1.5724387823269126
31
0
0
LINE
5
1090
100
AcDbEntity
8
0
100
AcDbLine
10
7.0273255671541612
20
-1.8303959781597001
30
0
11
6.7872460224358733
21
-1.753239519342884
31
0
0
LINE
5
1091
100
AcDbEntity
8
0
100
AcDbLine
10
4.5667417956128808
20
-0.41561217217370938
30
0
11
4.3693583874915909
21
-0.22336352522742686
31
0
0
LINE
5
1092
100
AcDbEntity
8
0
100
AcDbLine
10
-11.182706373389566
20
2.1423733390205513
30
0
11
-11.443145725681845
21
2.0406655955933672
31
0
0
LINE
5
1093
100
AcDbEntity
8
0
100
AcDbLine
10
2.5832606321466933
20
1.7430154718390156
30
0
11
2.4474855558672637
21
1.8135328852000754
31
0
0
LINE
5
1094
100
AcDbEntity
8
0
100
AcDbLine
10
7.2694762445105354
20
-1.8976021388728981
30
0
11
7.0273255671541612
21
-1.8303959781597001
31
0
0
LINE
5
1095
100
AcDbEntity
8
0
100
AcDbLine
10
3.8125658604080925
20
0.41957749337207417
30
0
11
3.63975999176537
21
0.65624098554202703
31
0
0
LINE
5
1096
100
AcDbEntity
8
0
100
AcDbLine
10
1.4020639087895859
20
2.061611745680878
30
0
11
-10.356714856862599
21
2.2668619925116928
31
0
0
LINE
5
1097
100
AcDbEntity
8
0
100
AcDbLine
10
-11.443145725681845
20
2.0406655955933672
30
0
11
-11.690668962642095
21
1.9106449493092015
31
0
0
LINE
5
1098
100
AcDbEntity
8
0
100
AcDbLine
10
1.7138928074641235
20
2.0367167395927055
30
0
11
1.5589093988657954
21
2.0539764792849979
31
0
0
LINE
5
1099
100
AcDbEntity
8
0
100
AcDbLine
10
2.7144950124644129
20
1.6643699738853002
30
0
11
2.5832606321466933
21
1.7430154718390156
31
0
0
LINE
5
1100
100
AcDbEntity
8
0
100
AcDbLine
10
2.9618110483676219
20
1.4835498034584305
30
0
11
2.8408060376087985
21
1.5778101611534368
31
0
0
LINE
5
1101
100
AcDbEntity
8
0
100
AcDbLine
10
1.8666314753724755
20
2.0100462964184374
30
0
11
1.7138928074641235
21
2.0367167395927055
31
0
0
LINE
5
1102
100
AcDbEntity
8
0
100
AcDbLine
10
-11.685841968206034
20
-16.356604974569606
30
0
11
-11.667461764540175
21
-16.996381696359819
31
0
0
LINE
5
1103
100
AcDbEntity
8
0
100
AcDbLine
10
-11.750914988475527
20
-15.719880868174627
30
0
11
-11.685841968206034
21
-16.356604974569606
31
0
0
LINE
5
1104
100
AcDbEntity
8
0
100
AcDbLine
10
-11.8623330184447
20
-15.089612585433727
30
0
11
-11.750914988475527
21
-15.719880868174627
31
0
0
LINE
5
1105
100
AcDbEntity
8
0
100
AcDbLine
10
-14.699736707543529
20
-10.302528633198875
30
0
11
-14.230918421604368
21
-10.738259628654063
31
0
0
LINE
5
1106
100
AcDbEntity
8
0
100
AcDbLine
10
-15.726448603423595
20
-9.5394549226040937
30
0
11
-15.199136510670712
21
-9.9022138542211025
31
0
0
LINE
5
1107
100
AcDbEntity
8
0
100
AcDbLine
10
-13.795187426149074
20
-11.207077914593171
30
0
11
-13.394872647171443
21
-11.70647771772046
31
0
0
LINE
5
1108
100
AcDbEntity
8
0
100
AcDbLine
10
-12.708849531018744
20
-12.786195777700229
30
0
11
-12.465213526664005
21
-13.324030784320868
31
0
0
LINE
5
1109
100
AcDbEntity
8
0
100
AcDbLine
10
-13.032113715554479
20
-12.233789810473397
30
0
11
-12.708849531018744
21
-12.786195777700229
31
0
0
LINE
5
1110
100
AcDbEntity
8
0
100
AcDbLine
10
-11.695872617296619
20
-17.635791509450769
30
0
11
-11.690007266906033
21
-17.78903891116336
31
0
0
LINE
5
1111
100
AcDbEntity
8
0
100
AcDbLine
10
-11.667461764540175
20
-16.996381696359819
30
0
11
-11.695872617296619
21
-17.635791509450769
31
0
0
LINE
5
1112
100
AcDbEntity
8
0
100
AcDbLine
10
-15.199136510670712
20
-9.9022138542211025
30
0
11
-14.699736707543529
21
-10.302528633198875
31
0
0
LINE
5
1113
100
AcDbEntity
8
0
100
AcDbLine
10
-14.230918421604368
20
-10.738259628654063
30
0
11
-13.795187426149074
21
-11.207077914593171
31
0
0
LINE
5
1114
100
AcDbEntity
8
0
100
AcDbLine
10
-13.394872647171443
20
-11.70647771772046
30
0
11
-13.032113715554479
21
-12.233789810473397
31
0
0
LINE
5
1115
100
AcDbEntity
8
0
100
AcDbLine
10
-11.690007266906033
20
-17.78903891116336
30
0
11
-11.661919634322375
21
-18.067219079743495
31
0
0
LINE
5
1116
100
AcDbEntity
8
0
100
AcDbLine
10
-19.710957573711177
20
-18.488776896599859
30
0
11
-19.631350088129
21
-18.207914806380359
31
0
0
LINE
5
1117
100
AcDbEntity
8
0
100
AcDbLine
10
-18.420168396021708
20
-15.349427476166539
30
0
11
-18.453201499298064
21
-14.977920237308382
31
0
0
LINE
5
1118
100
AcDbEntity
8
0
100
AcDbLine
10
-19.296751683865921
20
-10.393928486945043
30
0
11
-19.314355316317496
21
-10.268909964425745
31
0
0
LINE
5
1119
100
AcDbEntity
8
0
100
AcDbLine
10
-18.782945737916641
20
-8.408031200942645
30
0
11
-18.548246385756848
21
-8.7020269693848462
31
0
0
LINE
5
1120
100
AcDbEntity
8
0
100
AcDbLine
10
-19.314355316317496
20
-10.268909964425745
30
0
11
-19.321383373874419
21
-10.142853924287394
31
0
0
LINE
5
1121
100
AcDbEntity
8
0
100
AcDbLine
10
-13.188662376214282
20
21.801648350026213
30
0
11
-13.195797428106211
21
21.787534903075567
31
0
0
ARC
5
1122
100
AcDbEntity
8
0
100
AcDbCircle
10
-31.191037430090827
20
30.605970721428406
30
0
40
2.5400000000002021
100
AcDbArc
50
270.4521468008698
51
333.93838491932581
0
ARC
5
1123
100
AcDbEntity
8
0
100
AcDbCircle
10
-23.606837380023382
20
18.821005667498056
30
0
40
1.4999999999999418
100
AcDbArc
50
-13.321815651254104
51
10.797626460342631
0
ARC
5
1124
100
AcDbEntity
8
0
100
AcDbCircle
10
-20.997628379343595
20
24.093973423579413
30
0
40
1.9668163138698183
100
AcDbArc
50
-11.378957774398733
51
42.078953925744806
0
ARC
5
1125
100
AcDbEntity
8
0
100
AcDbCircle
10
-24.314348873147651
20
27.142950201149318
30
0
40
2.4810459260606263
100
AcDbArc
50
315.05556204641806
51
354.18681559813109
0
ARC
5
1126
100
AcDbEntity
8
0
100
AcDbCircle
10
-18.406395183831592
20
18.854649115127415
30
0
40
1.4999999999993807
100
AcDbArc
50
169.9436953709239
51
194.06313748253157
0
ARC
5
1127
100
AcDbEntity
8
0
100
AcDbCircle
10
-28.726195195802546
20
27.18535285429823
30
0
40
13.742026364980191
100
AcDbArc
50
313.88281870037673
51
344.45620551963378
0
ARC
5
1128
100
AcDbEntity
8
0
100
AcDbCircle
10
-21.048980825387133
20
25.645850982250025
30
0
40
8.7500000000003109
100
AcDbArc
50
26.965908682399583
51
63.938384919325628
0
ARC
5
1129
100
AcDbEntity
8
0
100
AcDbCircle
10
1.0977677951645148
20
20.780467640988718
30
0
40
2.5400000000003233
100
AcDbArc
50
34.072957341334629
51
90.452146800860532
0
LINE
5
1130
100
AcDbEntity
8
0
100
AcDbLine
10
-23.00658219160799
20
23.680455326673879
30
0
11
-22.133394861484163
21
19.102016600667255
31
0
0
ARC
5
1131
100
AcDbEntity
8
0
100
AcDbCircle
10
-26.263283619809556
20
47.713054608613703
30
0
40
2.539999999999853
100
AcDbArc
50
0.45214680086209802
51
56.831336260389428
0
ARC
5
1132
100
AcDbEntity
8
0
100
AcDbCircle
10
-43.195729445938269
20
30.511234323511189
30
0
40
2.54000000000004
100
AcDbArc
50
214.07295734133697
51
270.45214680086275
0
LINE
5
1133
100
AcDbEntity
8
0
100
AcDbLine
10
1.077723719248258
20
23.320388552163394
30
0
11
-10.926968296599382
21
23.225652154246461
31
0
0
ARC
5
1134
100
AcDbEntity
8
0
100
AcDbCircle
10
-21.058059776038974
20
26.79630644395921
30
0
40
0.79375000000005314
100
AcDbArc
50
7.8037002685469607
51
173.10059333318569
0
ARC
5
1135
100
AcDbEntity
8
0
100
AcDbCircle
10
-21.283255826870324
20
55.332426592678345
30
0
40
6.5624999999999378
100
AcDbArc
50
90.452146800865137
51
236.83133626039279
0
ARC
5
1136
100
AcDbEntity
8
0
100
AcDbCircle
10
-21.084759190119797
20
24.090261305167644
30
0
40
1.965030429550193
100
AcDbArc
50
138.57944704886097
51
192.03735874900116
0
ARC
5
1137
100
AcDbEntity
8
0
100
AcDbCircle
10
-10.906924220682477
20
20.685731243071288
30
0
40
2.5400000000008434
100
AcDbArc
50
90.45214680087507
51
153.93838491931692
0
ARC
5
1138
100
AcDbEntity
8
0
100
AcDbCircle
10
-26.110959290922466
20
23.569792931464875
30
0
40
0.49542640602457788
100
AcDbArc
50
16.286841281859918
51
196.28684128186003
0
ARC
5
1139
100
AcDbEntity
8
0
100
AcDbCircle
10
-21.050640716391918
20
25.64291256505193
30
0
40
8.7499999999996216
100
AcDbArc
50
282.82135633910326
51
333.85689903409951
0
ARC
5
1140
100
AcDbEntity
8
0
100
AcDbCircle
10
-16.088861086208965
20
35.787907586953978
30
0
40
2.5399999999998357
100
AcDbArc
50
180.45214680086369
51
243.93838491933153
0
ARC
5
1141
100
AcDbEntity
8
0
100
AcDbCircle
10
-19.131102280872518
20
17.208585550134998
30
0
40
0.099999999999938333
100
AcDbArc
50
133.8810937301609
51
282.8213563391048
0
ARC
5
1142
100
AcDbEntity
8
0
100
AcDbCircle
10
-17.805688293190094
20
27.190462367663599
30
0
40
2.482545793630254
100
AcDbArc
50
186.62426003015963
51
225.75551358188613
0
ARC
5
1143
100
AcDbEntity
8
0
100
AcDbCircle
10
-10.986469214871271
20
30.765417378755728
30
0
40
2.5399999999995639
100
AcDbArc
50
206.96590868239909
51
270.45214680087093
0
LINE
5
1144
100
AcDbEntity
8
0
100
AcDbLine
10
-10.966425138954561
20
28.225496467581763
30
0
11
1.0382668768932213
21
28.320232865498838
31
0
0
ARC
5
1145
100
AcDbEntity
8
0
100
AcDbCircle
10
-31.110019967136964
20
20.531271718079722
30
0
40
2.5350250935234713
100
AcDbArc
50
27.000077384183911
51
90.486315502658286
0
LINE
5
1146
100
AcDbEntity
8
0
100
AcDbLine
10
-23.628626310718353
20
35.728406668682382
30
0
11
-23.723362708635367
21
47.733098684530049
31
0
0
ARC
5
1147
100
AcDbEntity
8
0
100
AcDbCircle
10
-1.56593625540971
20
30.679444301475414
30
0
40
25.058543300377238
100
AcDbArc
50
196.15143360843061
51
212.77875455438937
0
ARC
5
1148
100
AcDbEntity
8
0
100
AcDbCircle
10
1.018222800977
20
30.860153776673087
30
0
40
2.5399999999999148
100
AcDbArc
50
270.45214680085979
51
326.83133626038739
0
LINE
5
1149
100
AcDbEntity
8
0
100
AcDbLine
10
-31.131536511819089
20
23.066205496918641
30
0
11
-43.136228527666759
21
22.971469099001425
31
0
0
ARC
5
1150
100
AcDbEntity
8
0
100
AcDbCircle
10
-15.963998502598926
20
23.635524547626829
30
0
40
0.49533072504806785
100
AcDbArc
50
-15.538158334867569
51
164.46184166513186
0
ARC
5
1151
100
AcDbEntity
8
0
100
AcDbCircle
10
8.6375947850416601
20
25.880125983733606
30
0
40
6.5625000000000515
100
AcDbArc
50
0.45214680086371012
51
146.83133626039185
0
LINE
5
1152
100
AcDbEntity
8
0
100
AcDbLine
10
-22.147200565530902
20
18.47537527274369
30
0
11
-22.460152683222788
21
17.153742571772383
31
0
0
ARC
5
1153
100
AcDbEntity
8
0
100
AcDbCircle
10
-50.735556435815077
20
25.411575980766443
30
0
40
6.5624999999999547
100
AcDbArc
50
34.072957341337265
51
180.45214680086289
0
ARC
5
1154
100
AcDbEntity
8
0
100
AcDbCircle
10
8.6375947850415713
20
25.880125983733677
30
0
40
6.5625000000001412
100
AcDbArc
50
-145.92704265866152
51
0.45214680086290404
0
ARC
5
1155
100
AcDbEntity
8
0
100
AcDbCircle
10
-32.40506895499248
20
26.826040761943517
30
0
40
16.254063719625918
100
AcDbArc
50
323.39594914973088
51
349.15650634999508
0
ARC
5
1156
100
AcDbEntity
8
0
100
AcDbCircle
10
-26.168547221893171
20
35.708362592766107
30
0
40
2.5400000000004646
100
AcDbArc
50
-63.034091317590558
51
0.45214680086048581
0
ARC
5
1157
100
AcDbEntity
8
0
100
AcDbCircle
10
-16.183597484125507
20
47.792599602801573
30
0
40
2.5400000000002452
100
AcDbArc
50
124.07295734133913
51
180.45214680086531
0
LINE
5
1158
100
AcDbEntity
8
0
100
AcDbLine
10
-18.723518395300076
20
47.772555526885085
30
0
11
-18.628781997383133
21
35.767863511037561
31
0
0
ARC
5
1159
100
AcDbEntity
8
0
100
AcDbCircle
10
-21.04898082538697
20
25.645850982249669
30
0
40
8.7500000000001332
100
AcDbArc
50
116.9659086823978
51
153.93838491932368
0
ARC
5
1160
100
AcDbEntity
8
0
100
AcDbCircle
10
-21.053088855663162
20
25.637052854119915
30
0
40
8.7437577818974894
100
AcDbArc
50
206.89207393945881
51
257.92761663445424
0
ARC
5
1161
100
AcDbEntity
8
0
100
AcDbCircle
10
-13.396080676486815
20
27.284714012919125
30
0
40
13.741889210157092
100
AcDbArc
50
196.28684128185219
51
226.86022810110654
0
ARC
5
1162
100
AcDbEntity
8
0
100
AcDbCircle
10
-50.735556435815084
20
25.411575980766585
30
0
40
6.5624999999999654
100
AcDbArc
50
180.45214680086451
51
326.83133626039279
0
LINE
5
1163
100
AcDbEntity
8
0
100
AcDbLine
10
-43.175685370021917
20
27.971313412336869
30
0
11
-31.170993354174161
21
28.066049810253872
31
0
0
LINE
5
1164
100
AcDbEntity
8
0
100
AcDbLine
10
-19.53141260863174
20
17.172689597737119
30
0
11
-19.86143800837489
21
18.490162656197597
31
0
0
ARC
5
1165
100
AcDbEntity
8
0
100
AcDbCircle
10
-22.860893931547992
20
17.184456246253816
30
0
40
0.1000000000000127
100
AcDbArc
50
-102.08003450776309
51
46.860228101083216
0
ARC
5
1166
100
AcDbEntity
8
0
100
AcDbCircle
10
-22.557461804188979
20
17.17678459808937
30
0
40
0.10000000000002557
100
AcDbArc
50
219.75279084606689
51
346.67818434873345
0
ARC
5
1167
100
AcDbEntity
8
0
100
AcDbCircle
10
-43.116184451750726
20
20.431548187827673
30
0
40
2.5399999999994147
100
AcDbArc
50
90.452146800855658
51
146.83133626039191
0
ARC
5
1168
100
AcDbEntity
8
0
100
AcDbCircle
10
-19.434409753662205
20
17.196988694999078
30
0
40
0.09999999999997683
100
AcDbArc
50
194.0631374825183
51
320.98853098526604
0
ARC
5
1169
100
AcDbEntity
8
0
100
AcDbCircle
10
-21.28325582687043
20
55.332426592678345
30
0
40
6.5624999999999645
100
AcDbArc
50
-55.927042658662131
51
90.452146800864199
0
LINE
5
1170
100
AcDbEntity
8
0
100
AcDbLine
10
-19.88335013371892
20
19.116572913208927
30
0
11
-19.069472398204105
21
23.705925842862214
31
0
0
LINE
5
1171
100
AcDbEntity
8
0
100
AcDbLine
10
-12.465213526664005
20
-13.324030784320868
30
0
11
-12.221577522309248
21
-13.861865790941721
31
0
0
LWPOLYLINE
5
1172
100
AcDbEntity
8
0
100
AcDbPolyline
90
407
70
1
43
0.0
10
35.019902958983593
20
-25.981219727470588
10
35.284436798871269
20
-25.781795066923507
10
35.542695942817097
20
-25.570509608178398
10
35.794324792735175
20
-25.34731939549296
10
36.038967750539967
20
-25.112180473124894
10
36.276269218145778
20
-24.865048885332115
10
36.505873597466575
20
-24.605880676372536
10
36.727425290417187
20
-24.334631890503644
10
36.940568698911598
20
-24.05125857198378
10
37.144948224863995
20
-23.755716765070005
10
37.340208270189095
20
-23.447962514020659
10
37.525993236801085
20
-23.127951863093443
10
37.855429264941485
20
-22.489696888469908
10
37.997617742241786
20
-22.210366635607883
10
38.067044946843765
20
-22.12917279329254
10
38.162611091261084
20
-22.029360221094549
10
38.263310279954581
20
-21.935331391128372
10
38.368863548426177
20
-21.847249009839445
10
38.478991932178097
20
-21.765275783672351
10
38.5934164667121
20
-21.689574419072173
10
38.711858187530396
20
-21.620307622484063
10
38.834038130134978
20
-21.557638100352676
10
38.959677330027759
20
-21.501728559123237
10
39.088496822710965
20
-21.452741705240612
10
39.220217643686581
20
-21.410840245149956
10
39.354560828456684
20
-21.376186885295994
10
39.491247412523109
20
-21.348944332123736
10
39.629998431388088
20
-21.329275292078407
10
39.770534920553473
20
-21.317342471604661
10
39.912577915521382
20
-21.313308577147723
10
51.784620175144234
20
-21.310796456567545
10
51.941576063306755
20
-21.315660017125353
10
52.096840166955062
20
-21.330179441125878
10
52.250026110555083
20
-21.354147751388979
10
52.400747518573368
20
-21.387357970734371
10
52.548618015475945
20
-21.429603121981771
10
52.693251225729242
20
-21.480676227951037
10
52.834260773799443
20
-21.540370311461885
10
52.971260284152763
20
-21.608478395333961
10
53.103863381255572
20
-21.684793502387194
10
53.231683689574147
20
-21.769108655441229
10
53.354334833574555
20
-21.861216877315783
10
53.471430437723235
20
-21.960911190830572
10
53.582584126486367
20
-22.067984618805596
10
53.687409524330256
20
-22.182230184060359
10
53.785520255721067
20
-22.303440909414789
10
53.876529945125178
20
-22.43140981768839
10
54.046791564323478
20
-22.676421346205373
10
54.223750889425858
20
-22.909995475814569
10
54.407107754294358
20
-23.13222296081733
10
54.596561992791365
20
-23.343194555514586
10
54.791813438778675
20
-23.54300101420769
10
54.992561926118562
20
-23.731733091197924
10
55.198507288673078
20
-23.909481540786217
10
55.409349360304262
20
-24.076337117273923
10
55.624787974874366
20
-24.23239057496211
10
55.84452296624535
20
-24.377732668152277
10
56.068254168279275
20
-24.512454151145135
10
56.29568141483837
20
-24.636645778242183
10
56.526504539784774
20
-24.750398303744632
10
56.760423376980462
20
-24.85380248195348
10
56.997137760287572
20
-24.946949067169939
10
57.236347523568263
20
-25.029928813695435
10
57.477752500684559
20
-25.102832475830681
10
57.721052525498564
20
-25.165750807877245
10
57.965947431872458
20
-25.21877456413641
10
58.212137053668265
20
-25.261994498908891
10
58.459321224748081
20
-25.295501366496396
10
58.707199778974072
20
-25.319385921199569
10
58.955472550208263
20
-25.333738917320119
10
59.203839372312963
20
-25.338651109158974
10
59.452000079149876
20
-25.334213251017417
10
59.699654504581581
20
-25.320516097196375
10
59.946502482469661
20
-25.297650401997203
10
60.192243846676647
20
-25.265706919721183
10
60.436578431064461
20
-25.224776404669598
10
60.679206069495265
20
-25.174949611143163
10
60.919826595831083
20
-25.116317293443373
10
61.158139843933967
20
-25.048970205871584
10
61.393845647666367
20
-24.972999102728792
10
61.626643840889876
20
-24.888494738315927
10
61.856234257466873
20
-24.795547866934484
10
62.082316731259581
20
-24.694249242885746
10
62.304591096129762
20
-24.584689620470712
10
62.522757185939852
20
-24.466959753990452
10
62.736514834551755
20
-24.34115039774646
10
62.945563875827659
20
-24.207352306039596
10
63.14960414362956
20
-24.065656233171282
10
63.348335471819688
20
-23.916152933442518
10
63.541457694260082
20
-23.758933161154658
10
63.728670644812766
20
-23.594087670608843
10
63.909674157339978
20
-23.421707216106284
10
64.08416806570375
20
-23.241882551947981
10
64.251852203766262
20
-23.054704432435358
10
64.412426405389468
20
-22.860263611869556
10
64.565590504435662
20
-22.658650844551644
10
64.711044334766655
20
-22.449956884782694
10
64.848487730244841
20
-22.23427248686427
10
64.977620524732274
20
-22.011688405097161
10
65.098142552090863
20
-21.78229539378286
10
65.209753646182961
20
-21.54618420722251
10
65.312153640870477
20
-21.303445599717037
10
65.405042370015551
20
-21.054170325567938
10
65.488119667480262
20
-20.798449139076283
10
65.561085367126978
20
-20.53637279454307
10
65.623639302817352
20
-20.268032046269795
10
65.675481308413751
20
-19.993517648557457
10
65.716311217778255
20
-19.712920355707055
10
65.745828864773046
20
-19.426330922020369
10
65.763734083260175
20
-19.133840101797972
10
65.769726707101597
20
-18.83553864934143
10
65.76360784280665
20
-18.537239759672133
10
65.745578843989065
20
-18.244756543119465
10
65.715939915166572
20
-17.958179626946418
10
65.674991260857652
20
-17.677599638415771
10
65.62303308558036
20
-17.403107204790587
10
65.560365593852978
20
-17.134792953333715
10
65.487288990193676
20
-16.872747511308219
10
65.404103479120465
20
-16.61706150597702
10
65.311109265151757
20
-16.367825564602825
10
65.208606552805463
20
-16.125130314448981
10
65.096895546600166
20
-15.889066382777841
10
64.976276451053749
20
-15.659724396852894
10
64.847049470684354
20
-15.437194983936848
10
64.709514810010489
20
-15.221568771292553
10
64.563972673549983
20
-15.012936386183
10
64.410723265821176
20
-14.811388455871182
10
64.250066791342164
20
-14.617015607620019
10
64.082303454631358
20
-14.42990846869229
10
63.907733460206764
20
-14.250157666351342
10
63.726657012586472
20
-14.077853827859528
10
63.539374316288857
20
-13.913087580480408
10
63.346185575831967
20
-13.755949551476405
10
63.14739099573417
20
-13.606530368110583
10
62.943290780513465
20
-13.464920657646076
10
62.734185134688083
20
-13.331211047345732
10
62.520374262776173
20
-13.205492164472119
10
62.302158369296059
20
-13.087854636288938
10
62.079837658765754
20
-12.978389090058471
10
61.853712335703577
20
-12.877186153043567
10
61.624082604627674
20
-12.784336452507716
10
61.391248670056164
20
-12.699930615713484
10
61.155510736507246
20
-12.624059269924075
10
60.917169008499158
20
-12.556813042402055
10
60.676523690550077
20
-12.49828256041063
10
60.433874987178072
20
-12.448558451212577
10
60.189523102901568
20
-12.407731342071102
10
59.943768242238477
20
-12.375891860248558
10
59.69691060970716
20
-12.353130633008576
10
59.449250409825666
20
-12.339538287613649
10
59.201087847112355
20
-12.335205451327056
10
58.952723126085367
20
-12.340222751411218
10
58.704456451262779
20
-12.354680815129555
10
58.456588027162653
20
-12.378670269744703
10
58.209418058303569
20
-12.412281742519866
10
57.96324674920335
20
-12.455605860717682
10
57.718374304380369
20
-12.508733251601285
10
57.475100928352738
20
-12.571754542433382
10
57.233726825638755
20
-12.644760360477392
10
56.994552200756452
20
-12.727841332995737
10
56.757877258224063
20
-12.821088087251482
10
56.524002202559736
20
-12.924591250507618
10
56.29322723828178
20
-13.038441450027065
10
56.065852569908245
20
-13.162729313072887
10
55.842178401957355
20
-13.297545466907863
10
55.622504938947245
20
-13.442980538794984
10
55.407132385396253
20
-13.599125155997029
10
55.196360945822462
20
-13.766069945777346
10
54.990490824744072
20
-13.943905535398287
10
54.789822226679078
20
-14.132722552123269
10
54.594655356145964
20
-14.332611623215072
10
54.405290417662862
20
-14.543663375936475
10
54.222027615747876
20
-14.765968437550541
10
54.045167154919071
20
-14.999617435320189
10
53.875009239694727
20
-15.244700996508627
10
53.784053714803477
20
-15.372708408566709
10
53.685994288502471
20
-15.493960643467446
10
53.581217248698053
20
-15.608250560535097
10
53.470108883297073
20
-15.715371019093922
10
53.35305548020596
20
-15.815114878468464
10
53.230443327331173
20
-15.907274997982981
10
53.102658712579363
20
-15.991644236962017
10
52.970087923856859
20
-16.068015454730116
10
52.833117249070355
20
-16.13618151061111
10
52.692132976126587
20
-16.195935263930039
10
52.547521392931671
20
-16.247069574010737
10
52.399668787392564
20
-16.289377300178032
10
52.248961447415461
20
-16.322651301756181
10
52.09578566090714
20
-16.346684438069374
10
51.940527715774166
20
-16.361269568442367
10
51.783573899922871
20
-16.366199552199276
10
39.905021178666189
20
-16.369041272796139
10
39.52425264060318
20
-16.363098743064057
10
39.150696543587372
20
-16.28909985374456
10
38.796417568774174
20
-16.149434535059157
10
38.472857807205486
20
-15.94861353533112
10
38.190467216435678
20
-15.693122738074408
10
38.026364522232882
20
-15.479663649799917
10
37.790475264251683
20
-15.065236112508344
10
37.725034332444793
20
-14.942582417113996
10
37.570787155767263
20
-14.647605441506144
10
37.405260169892202
20
-14.359531099197227
10
37.228147418122184
20
-14.078829533541395
10
37.039142943759472
20
-13.805970887892798
10
36.853125058400465
20
-13.562869388990535
10
36.108301356338686
20
-12.652465460427536
10
35.098743990152371
20
-11.766613145698557
10
33.957482429429469
20
-11.05847301186337
10
32.715470693079581
20
-10.54725168415807
10
31.438263831154796
20
-10.254128733082055
10
31.22881063045849
20
-10.190392732867792
10
30.819965903430688
20
-10.137415872782398
10
30.411053069366272
20
-10.104165622295085
10
30.00272506745798
20
-10.090375566562457
10
29.595634836898785
20
-10.095779290741191
10
29.190435316881373
20
-10.120110379988247
10
28.78777944659868
20
-10.163102419459946
10
28.388320165243375
20
-10.224488994313106
10
27.992710412008286
20
-10.304003689704402
10
27.601603126086474
20
-10.401380090790582
10
27.215651246670589
20
-10.516351782728108
10
26.835507712953373
20
-10.648652350673942
10
26.461825464127884
20
-10.798015379784403
10
26.095257439386668
20
-10.964174455216593
10
25.736456577922588
20
-11.146863162126905
10
25.386075818928671
20
-11.345815085672086
10
25.044768101597583
20
-11.560763811008599
10
24.713186365122191
20
-11.791442923293403
10
24.391983548695286
20
-12.037586007683103
10
24.081812591509681
20
-12.298926649334234
10
23.783326432758276
20
-12.575198433403685
10
23.497178011633775
20
-12.86613494504806
10
23.224020267329077
20
-13.171469769423823
10
22.964506139037013
20
-13.490936491687933
10
22.719288565950393
20
-13.824268696996924
10
22.489020487261993
20
-14.171199970507615
10
22.274354842164534
20
-14.531463897376327
10
22.075944569851185
20
-14.904794062760018
10
21.894442609514506
20
-15.290924051815367
10
21.730501900347221
20
-15.689587449698976
10
21.584775381542425
20
-16.100517841567523
10
21.457915992292751
20
-16.523448812577755
10
21.350576671790993
20
-16.958113947886133
42
0.76000637891200029
10
21.520727201642629
20
-17.048565007413643
10
22.400634976044227
20
-16.200997332675655
10
23.352343883684608
20
-15.434930227370387
10
24.368331511038601
20
-14.756418771478508
10
25.440567378399379
20
-14.17082599534659
10
26.560576413687684
20
-13.682780489696427
10
27.713766387850374
20
-13.298054643304553
10
27.799795736425779
20
-13.28008470630941
10
27.890310668994385
20
-13.278305570958437
10
27.97883139132427
20
-13.292825724082888
10
28.063110449884778
20
-13.322869594955904
10
28.140900391145269
20
-13.367661612851052
10
28.209953761575282
20
-13.426426207042113
10
28.268023107644265
20
-13.49838780680237
10
28.312860975821575
20
-13.582770841405322
42
-0.029442209602167733
10
28.33199181536418
20
-13.637837603210912
42
-0.029442209602124507
10
28.344521908951474
20
-13.694770318165155
10
28.35049778513838
20
-13.790139180249668
10
28.338697313677184
20
-13.881852154610925
10
28.310629287163085
20
-13.96807182397815
10
28.267802498191283
20
-14.046960771079853
10
28.211725739356961
20
-14.116681578644901
10
28.14390780325537
20
-14.175396829401947
10
28.065857482481587
20
-14.221269106080001
10
27.979083569630774
20
-14.252460991407716
10
27.975000409671278
20
-14.253475640353344
10
26.936624943402485
20
-14.530598028603023
10
25.898706637929969
20
-14.86725869255018
10
24.880022529812393
20
-15.258279790897333
10
23.88341748206626
20
-15.702569325200315
10
22.911674697865383
20
-16.198886535094914
10
21.966679907545128
20
-16.746716899709142
10
21.669133990156038
20
-16.971137013125386
10
21.376894189534376
20
-17.204192678539705
42
0.61836867687848707
10
21.414814038841588
20
-17.380224097825234
10
22.734314278928647
20
-17.70204880268011
10
22.858120884722943
20
-17.726776180423869
10
22.983568360173781
20
-17.741004664228939
10
23.109768006436973
20
-17.744633456235164
10
23.235825796116973
20
-17.737636849242904
10
23.360848706762578
20
-17.720064408829899
10
27.945050775969182
20
-16.877657933328649
10
28.316566244857082
20
-16.844717520262051
10
28.687743408339692
20
-16.881273337105895
10
29.045695042301585
20
-16.986056170527917
10
29.377993111338387
20
-17.155427973820068
10
29.645937509011979
20
-17.340050533815585
10
29.932408042113874
20
-17.59548463387631
10
30.217351935420478
20
-17.77150030457463
10
30.52297760386649
20
-17.908494791511416
10
30.843971106977879
20
-18.004086159449955
10
31.174751302382973
20
-18.056612352838428
10
31.455593522194985
20
-18.136289909617389
10
31.688637824726769
20
-18.312105775058214
10
31.842361978517193
20
-18.560278597955246
10
31.895972819758693
20
-18.847239820395743
10
31.842218794441681
20
-19.134174255843064
10
31.688370824058865
20
-19.382270341044361
10
31.455238820200169
20
-19.557969897845382
10
31.174356877056173
20
-19.637507307275612
10
30.843550512792177
20
-19.689868438150526
10
30.522509350516582
20
-19.785299621674639
10
30.216815361255271
20
-19.922141587436499
10
29.931783673382188
20
-20.098015052098859
10
29.645185716910269
20
-20.353306174458439
10
29.377149227802981
20
-20.537795009922988
10
29.044766685317871
20
-20.707000978751395
10
28.686762810344391
20
-20.811605184880761
10
28.315567452088679
20
-20.847975783520312
10
27.944068466385872
20
-20.814849992090743
10
23.360287320208766
20
-19.970156150965011
10
23.235273193598083
20
-19.952521327570878
10
23.109218910847993
20
-19.945461819886745
10
22.983017469565485
20
-19.949027639093231
10
22.857562909862619
20
-19.963193524104597
10
22.733743980770136
20
-19.987859120524831
10
21.414083317679857
20
-20.309025368030404
42
0.61836867687824548
10
21.374261904024241
20
-20.483466609570016
10
21.668199107011947
20
-20.718239304886055
10
21.965633003989584
20
-20.942807862768404
10
22.910354314847154
20
-21.491109702029618
10
23.881849320799073
20
-21.987911739962911
10
24.878232548485091
20
-22.43269851480008
10
25.896721414205199
20
-22.824227877541077
10
26.934471600192769
20
-23.161406410319714
10
27.972708655917682
20
-23.439046902931793
10
27.976791309069267
20
-23.440063589206588
10
28.063549646681594
20
-23.47129876995659
10
28.141577067935977
20
-23.517209987244954
10
28.209365697277899
20
-23.575959071156873
10
28.265407659152579
20
-23.6457078517779
10
28.308195078005394
20
-23.724618159193085
10
28.336220078281595
20
-23.81085182348798
10
28.347974784426384
20
-23.902570674747423
10
28.341951320885173
20
-23.997936543057037
42
-0.029442209602449195
10
28.329392820008486
20
-24.054862998533366
42
-0.029442209601639919
10
28.310234505089991
20
-24.109920207387887
10
28.265354536213376
20
-24.194280857842401
10
28.207249289262766
20
-24.26621347262703
10
28.138166604491079
20
-24.324943602568112
10
28.060354322150776
20
-24.369696798492484
10
27.976060282494775
20
-24.39969861122691
10
27.887532325775677
20
-24.41417459159787
10
27.797018292246278
20
-24.412350290431846
10
27.710997921198075
20
-24.394337427898236
10
26.558000064911269
20
-24.00903619926126
10
25.438234698833675
20
-23.520431881181736
10
24.366291169838075
20
-22.934304143092774
10
23.350642239328785
20
-22.255285804115061
10
22.399315709914784
20
-21.488743901055543
10
21.519830972761113
20
-20.640737266749717
42
0.76000637891177114
10
21.349635329927974
20
-20.731103411621845
10
21.437867194123594
20
-21.097400388484218
10
21.538671060918571
20
-21.454166221485238
10
21.651691332227347
20
-21.80135695488282
10
21.776572409964121
20
-22.138928632934451
10
21.912958696043177
20
-22.466837299898117
10
22.060494592379101
20
-22.785039000031233
10
22.218824500885841
20
-23.093489777592282
10
22.387592823477878
20
-23.392145676838396
10
22.566443962069549
20
-23.680962742028058
10
22.755022318575087
20
-23.959897017418186
10
22.952972294909024
20
-24.228904547267334
10
23.15993829298538
20
-24.487941375833131
10
23.375564714718582
20
-24.736963547373207
10
23.599495962022967
20
-24.975927106145335
10
23.831376436812874
20
-25.20478809640764
10
24.070850541002589
20
-25.423502562417468
10
24.31756267650627
20
-25.632026548432947
10
24.571157245238577
20
-25.830316098711705
10
24.831278649113582
20
-26.018327257511586
10
25.097571290045462
20
-26.196016069090504
10
25.369679569948982
20
-26.363338577706088
10
25.647247890737876
20
-26.520250827616323
10
25.929920654326963
20
-26.666708863078838
10
26.217342262630279
20
-26.802668728351406
10
26.509157117562179
20
-26.928086467692012
10
26.805009621037073
20
-27.042918125358426
10
27.104544174969174
20
-27.147119745608208
10
27.407405181272768
20
-27.240647372699343
10
27.713237041862282
20
-27.323457050889601
10
28.021684158651983
20
-27.395504824436827
10
28.332390933556173
20
-27.456746737598721
10
28.645001768489191
20
-27.507138834633267
10
28.959161065365269
20
-27.546637159798166
10
29.274513226098779
20
-27.575197757350836
10
29.590702652603991
20
-27.592776671549757
10
29.907373746795383
20
-27.599329946652347
10
30.224170910587187
20
-27.594813626916377
10
30.540738545893475
20
-27.579183756599761
10
30.856721054628888
20
-27.552396379960129
10
31.17176283870748
20
-27.514407541255537
10
31.485508300043765
20
-27.465173284743756
10
31.797601840551977
20
-27.404649654682203
10
32.107687862146577
20
-27.332792695329147
10
32.415410766741587
20
-27.249558450942075
10
32.720414956251389
20
-27.154902965779044
10
33.022344832590477
20
-27.048782284097612
10
33.320844797673089
20
-26.931152450155693
10
33.61555925341348
20
-26.80196950821113
10
33.906132601725986
20
-26.661189502521765
10
34.192209244524875
20
-26.508768477345157
10
34.473433583724699
20
-26.344662476939149
10
34.749450021239369
20
-26.168827545561655
0
LINE
5
1173
100
AcDbEntity
8
0
100
AcDbLine
10
-12.221577522309248
20
-13.861865790941721
30
0
11
-12.01950054310811
21
-14.46916882906045
31
0
0
LINE
5
1174
100
AcDbEntity
8
0
100
AcDbLine
10
-12.01950054310811
20
-14.46916882906045
30
0
11
-11.8623330184447
21
-15.089612585433727
31
0
0
ENDSEC
0
SECTION
2
OBJECTS
0
DICTIONARY
5
C
100
AcDbDictionary
3
ACAD_GROUP
350
D
3
ACAD_MLINESTYLE
350
17
0
DICTIONARY
5
D
100
AcDbDictionary
0
DICTIONARY
5
1A
330
C
100
AcDbDictionary
0
DICTIONARY
5
17
100
AcDbDictionary
0
ENDSEC
0
EOF
